ISO-10303-21;
HEADER;
/* Generated by software containing ST-Developer
 * from STEP Tools, Inc. (www.steptools.com) 
 */

FILE_DESCRIPTION(
/* description */ (''),
/* implementation_level */ '2;1');

FILE_NAME(
/* name */ '158000 FKplus.ipt.stp',
/* time_stamp */ '2023-05-26T09:29:29+03:00',
/* author */ ('\X2\042004420438044904350432\X0\ \X2\0410\X0\.\X2\041E\X0\.'),

/* organization */ (''),
/* preprocessor_version */ 'ST-DEVELOPER v19.2',
/* originating_system */ 'Autodesk Inventor 2023',
/* authorisation */ '');

FILE_SCHEMA (('AUTOMOTIVE_DESIGN { 1 0 10303 214 3 1 1 }'));
ENDSEC;

DATA;
#10=MECHANICAL_DESIGN_GEOMETRIC_PRESENTATION_REPRESENTATION('',(#286,#287,
#288,#289,#290,#291,#292,#293,#294,#295,#296,#297,#298,#299,#300,#301,#302,
#303),#539);
#11=SHAPE_REPRESENTATION_RELATIONSHIP('SRR','None',#546,#12);
#12=ADVANCED_BREP_SHAPE_REPRESENTATION('',(#13),#538);
#13=MANIFOLD_SOLID_BREP('\X2\04220432043504400434043E0435\X0\ \X2\04420435043B043E\X0\1',
#322);
#14=PLANE('',#348);
#15=PLANE('',#349);
#16=PLANE('',#350);
#17=PLANE('',#352);
#18=PLANE('',#354);
#19=PLANE('',#355);
#20=PLANE('',#356);
#21=PLANE('',#358);
#22=PLANE('',#359);
#23=PLANE('',#361);
#24=PLANE('',#362);
#25=PLANE('',#365);
#26=PLANE('',#366);
#27=PLANE('',#367);
#28=PLANE('',#368);
#29=FACE_OUTER_BOUND('',#47,.T.);
#30=FACE_OUTER_BOUND('',#48,.T.);
#31=FACE_OUTER_BOUND('',#49,.T.);
#32=FACE_OUTER_BOUND('',#50,.T.);
#33=FACE_OUTER_BOUND('',#51,.T.);
#34=FACE_OUTER_BOUND('',#52,.T.);
#35=FACE_OUTER_BOUND('',#53,.T.);
#36=FACE_OUTER_BOUND('',#54,.T.);
#37=FACE_OUTER_BOUND('',#55,.T.);
#38=FACE_OUTER_BOUND('',#56,.T.);
#39=FACE_OUTER_BOUND('',#57,.T.);
#40=FACE_OUTER_BOUND('',#58,.T.);
#41=FACE_OUTER_BOUND('',#59,.T.);
#42=FACE_OUTER_BOUND('',#60,.T.);
#43=FACE_OUTER_BOUND('',#61,.T.);
#44=FACE_OUTER_BOUND('',#62,.T.);
#45=FACE_OUTER_BOUND('',#63,.T.);
#46=FACE_OUTER_BOUND('',#64,.T.);
#47=EDGE_LOOP('',(#203,#204,#205,#206));
#48=EDGE_LOOP('',(#207,#208,#209,#210));
#49=EDGE_LOOP('',(#211,#212,#213,#214));
#50=EDGE_LOOP('',(#215,#216,#217,#218));
#51=EDGE_LOOP('',(#219,#220,#221,#222));
#52=EDGE_LOOP('',(#223,#224,#225,#226));
#53=EDGE_LOOP('',(#227,#228,#229,#230));
#54=EDGE_LOOP('',(#231,#232,#233,#234));
#55=EDGE_LOOP('',(#235,#236,#237,#238));
#56=EDGE_LOOP('',(#239,#240,#241,#242));
#57=EDGE_LOOP('',(#243,#244,#245,#246,#247,#248,#249,#250));
#58=EDGE_LOOP('',(#251,#252,#253,#254));
#59=EDGE_LOOP('',(#255,#256,#257,#258));
#60=EDGE_LOOP('',(#259,#260,#261,#262));
#61=EDGE_LOOP('',(#263,#264,#265,#266));
#62=EDGE_LOOP('',(#267,#268,#269,#270));
#63=EDGE_LOOP('',(#271,#272,#273,#274));
#64=EDGE_LOOP('',(#275,#276,#277,#278,#279,#280,#281,#282));
#65=CIRCLE('',#346,3.);
#66=CIRCLE('',#347,3.);
#67=CIRCLE('',#351,1.5);
#68=CIRCLE('',#353,1.5);
#69=CIRCLE('',#360,3.5);
#70=CIRCLE('',#364,3.5);
#71=LINE('',#457,#105);
#72=LINE('',#461,#106);
#73=LINE('',#465,#107);
#74=LINE('',#467,#108);
#75=LINE('',#469,#109);
#76=LINE('',#470,#110);
#77=LINE('',#473,#111);
#78=LINE('',#475,#112);
#79=LINE('',#476,#113);
#80=LINE('',#478,#114);
#81=LINE('',#481,#115);
#82=LINE('',#484,#116);
#83=LINE('',#488,#117);
#84=LINE('',#489,#118);
#85=LINE('',#491,#119);
#86=LINE('',#494,#120);
#87=LINE('',#497,#121);
#88=LINE('',#499,#122);
#89=LINE('',#500,#123);
#90=LINE('',#503,#124);
#91=LINE('',#505,#125);
#92=LINE('',#507,#126);
#93=LINE('',#511,#127);
#94=LINE('',#512,#128);
#95=LINE('',#515,#129);
#96=LINE('',#516,#130);
#97=LINE('',#519,#131);
#98=LINE('',#520,#132);
#99=LINE('',#523,#133);
#100=LINE('',#527,#134);
#101=LINE('',#528,#135);
#102=LINE('',#531,#136);
#103=LINE('',#532,#137);
#104=LINE('',#534,#138);
#105=VECTOR('',#373,10.);
#106=VECTOR('',#376,10.);
#107=VECTOR('',#381,10.);
#108=VECTOR('',#382,10.);
#109=VECTOR('',#383,10.);
#110=VECTOR('',#384,10.);
#111=VECTOR('',#387,10.);
#112=VECTOR('',#388,10.);
#113=VECTOR('',#389,10.);
#114=VECTOR('',#392,10.);
#115=VECTOR('',#395,10.);
#116=VECTOR('',#398,10.);
#117=VECTOR('',#403,10.);
#118=VECTOR('',#404,10.);
#119=VECTOR('',#407,10.);
#120=VECTOR('',#412,10.);
#121=VECTOR('',#415,10.);
#122=VECTOR('',#416,10.);
#123=VECTOR('',#417,10.);
#124=VECTOR('',#420,10.);
#125=VECTOR('',#421,10.);
#126=VECTOR('',#422,10.);
#127=VECTOR('',#425,10.);
#128=VECTOR('',#426,10.);
#129=VECTOR('',#429,10.);
#130=VECTOR('',#430,10.);
#131=VECTOR('',#433,10.);
#132=VECTOR('',#434,10.);
#133=VECTOR('',#437,10.);
#134=VECTOR('',#442,10.);
#135=VECTOR('',#443,10.);
#136=VECTOR('',#446,10.);
#137=VECTOR('',#447,10.);
#138=VECTOR('',#450,10.);
#139=VERTEX_POINT('',#455);
#140=VERTEX_POINT('',#456);
#141=VERTEX_POINT('',#458);
#142=VERTEX_POINT('',#460);
#143=VERTEX_POINT('',#464);
#144=VERTEX_POINT('',#466);
#145=VERTEX_POINT('',#468);
#146=VERTEX_POINT('',#472);
#147=VERTEX_POINT('',#474);
#148=VERTEX_POINT('',#479);
#149=VERTEX_POINT('',#483);
#150=VERTEX_POINT('',#487);
#151=VERTEX_POINT('',#496);
#152=VERTEX_POINT('',#498);
#153=VERTEX_POINT('',#502);
#154=VERTEX_POINT('',#504);
#155=VERTEX_POINT('',#506);
#156=VERTEX_POINT('',#508);
#157=VERTEX_POINT('',#510);
#158=VERTEX_POINT('',#514);
#159=VERTEX_POINT('',#518);
#160=VERTEX_POINT('',#522);
#161=VERTEX_POINT('',#526);
#162=VERTEX_POINT('',#530);
#163=EDGE_CURVE('',#139,#140,#71,.T.);
#164=EDGE_CURVE('',#141,#139,#65,.T.);
#165=EDGE_CURVE('',#142,#141,#72,.T.);
#166=EDGE_CURVE('',#140,#142,#66,.T.);
#167=EDGE_CURVE('',#140,#143,#73,.T.);
#168=EDGE_CURVE('',#143,#144,#74,.T.);
#169=EDGE_CURVE('',#144,#145,#75,.T.);
#170=EDGE_CURVE('',#145,#140,#76,.T.);
#171=EDGE_CURVE('',#143,#146,#77,.T.);
#172=EDGE_CURVE('',#146,#147,#78,.T.);
#173=EDGE_CURVE('',#147,#144,#79,.T.);
#174=EDGE_CURVE('',#146,#139,#80,.T.);
#175=EDGE_CURVE('',#148,#146,#67,.T.);
#176=EDGE_CURVE('',#141,#148,#81,.T.);
#177=EDGE_CURVE('',#149,#142,#82,.T.);
#178=EDGE_CURVE('',#149,#143,#68,.T.);
#179=EDGE_CURVE('',#139,#150,#83,.T.);
#180=EDGE_CURVE('',#147,#150,#84,.T.);
#181=EDGE_CURVE('',#150,#145,#85,.T.);
#182=EDGE_CURVE('',#148,#149,#86,.T.);
#183=EDGE_CURVE('',#142,#151,#87,.T.);
#184=EDGE_CURVE('',#152,#151,#88,.T.);
#185=EDGE_CURVE('',#149,#152,#89,.T.);
#186=EDGE_CURVE('',#153,#141,#90,.T.);
#187=EDGE_CURVE('',#154,#153,#91,.T.);
#188=EDGE_CURVE('',#155,#154,#92,.T.);
#189=EDGE_CURVE('',#156,#155,#69,.T.);
#190=EDGE_CURVE('',#157,#156,#93,.T.);
#191=EDGE_CURVE('',#151,#157,#94,.T.);
#192=EDGE_CURVE('',#158,#157,#95,.T.);
#193=EDGE_CURVE('',#152,#158,#96,.T.);
#194=EDGE_CURVE('',#159,#156,#97,.T.);
#195=EDGE_CURVE('',#158,#159,#98,.T.);
#196=EDGE_CURVE('',#160,#155,#99,.T.);
#197=EDGE_CURVE('',#159,#160,#70,.T.);
#198=EDGE_CURVE('',#161,#154,#100,.T.);
#199=EDGE_CURVE('',#160,#161,#101,.T.);
#200=EDGE_CURVE('',#162,#153,#102,.T.);
#201=EDGE_CURVE('',#161,#162,#103,.T.);
#202=EDGE_CURVE('',#162,#148,#104,.T.);
#203=ORIENTED_EDGE('',*,*,#163,.F.);
#204=ORIENTED_EDGE('',*,*,#164,.F.);
#205=ORIENTED_EDGE('',*,*,#165,.F.);
#206=ORIENTED_EDGE('',*,*,#166,.F.);
#207=ORIENTED_EDGE('',*,*,#167,.T.);
#208=ORIENTED_EDGE('',*,*,#168,.T.);
#209=ORIENTED_EDGE('',*,*,#169,.T.);
#210=ORIENTED_EDGE('',*,*,#170,.T.);
#211=ORIENTED_EDGE('',*,*,#171,.T.);
#212=ORIENTED_EDGE('',*,*,#172,.T.);
#213=ORIENTED_EDGE('',*,*,#173,.T.);
#214=ORIENTED_EDGE('',*,*,#168,.F.);
#215=ORIENTED_EDGE('',*,*,#174,.F.);
#216=ORIENTED_EDGE('',*,*,#175,.F.);
#217=ORIENTED_EDGE('',*,*,#176,.F.);
#218=ORIENTED_EDGE('',*,*,#164,.T.);
#219=ORIENTED_EDGE('',*,*,#167,.F.);
#220=ORIENTED_EDGE('',*,*,#166,.T.);
#221=ORIENTED_EDGE('',*,*,#177,.F.);
#222=ORIENTED_EDGE('',*,*,#178,.T.);
#223=ORIENTED_EDGE('',*,*,#174,.T.);
#224=ORIENTED_EDGE('',*,*,#179,.T.);
#225=ORIENTED_EDGE('',*,*,#180,.F.);
#226=ORIENTED_EDGE('',*,*,#172,.F.);
#227=ORIENTED_EDGE('',*,*,#181,.T.);
#228=ORIENTED_EDGE('',*,*,#169,.F.);
#229=ORIENTED_EDGE('',*,*,#173,.F.);
#230=ORIENTED_EDGE('',*,*,#180,.T.);
#231=ORIENTED_EDGE('',*,*,#163,.T.);
#232=ORIENTED_EDGE('',*,*,#170,.F.);
#233=ORIENTED_EDGE('',*,*,#181,.F.);
#234=ORIENTED_EDGE('',*,*,#179,.F.);
#235=ORIENTED_EDGE('',*,*,#171,.F.);
#236=ORIENTED_EDGE('',*,*,#178,.F.);
#237=ORIENTED_EDGE('',*,*,#182,.F.);
#238=ORIENTED_EDGE('',*,*,#175,.T.);
#239=ORIENTED_EDGE('',*,*,#177,.T.);
#240=ORIENTED_EDGE('',*,*,#183,.T.);
#241=ORIENTED_EDGE('',*,*,#184,.F.);
#242=ORIENTED_EDGE('',*,*,#185,.F.);
#243=ORIENTED_EDGE('',*,*,#165,.T.);
#244=ORIENTED_EDGE('',*,*,#186,.F.);
#245=ORIENTED_EDGE('',*,*,#187,.F.);
#246=ORIENTED_EDGE('',*,*,#188,.F.);
#247=ORIENTED_EDGE('',*,*,#189,.F.);
#248=ORIENTED_EDGE('',*,*,#190,.F.);
#249=ORIENTED_EDGE('',*,*,#191,.F.);
#250=ORIENTED_EDGE('',*,*,#183,.F.);
#251=ORIENTED_EDGE('',*,*,#191,.T.);
#252=ORIENTED_EDGE('',*,*,#192,.F.);
#253=ORIENTED_EDGE('',*,*,#193,.F.);
#254=ORIENTED_EDGE('',*,*,#184,.T.);
#255=ORIENTED_EDGE('',*,*,#190,.T.);
#256=ORIENTED_EDGE('',*,*,#194,.F.);
#257=ORIENTED_EDGE('',*,*,#195,.F.);
#258=ORIENTED_EDGE('',*,*,#192,.T.);
#259=ORIENTED_EDGE('',*,*,#189,.T.);
#260=ORIENTED_EDGE('',*,*,#196,.F.);
#261=ORIENTED_EDGE('',*,*,#197,.F.);
#262=ORIENTED_EDGE('',*,*,#194,.T.);
#263=ORIENTED_EDGE('',*,*,#188,.T.);
#264=ORIENTED_EDGE('',*,*,#198,.F.);
#265=ORIENTED_EDGE('',*,*,#199,.F.);
#266=ORIENTED_EDGE('',*,*,#196,.T.);
#267=ORIENTED_EDGE('',*,*,#187,.T.);
#268=ORIENTED_EDGE('',*,*,#200,.F.);
#269=ORIENTED_EDGE('',*,*,#201,.F.);
#270=ORIENTED_EDGE('',*,*,#198,.T.);
#271=ORIENTED_EDGE('',*,*,#176,.T.);
#272=ORIENTED_EDGE('',*,*,#202,.F.);
#273=ORIENTED_EDGE('',*,*,#200,.T.);
#274=ORIENTED_EDGE('',*,*,#186,.T.);
#275=ORIENTED_EDGE('',*,*,#182,.T.);
#276=ORIENTED_EDGE('',*,*,#185,.T.);
#277=ORIENTED_EDGE('',*,*,#193,.T.);
#278=ORIENTED_EDGE('',*,*,#195,.T.);
#279=ORIENTED_EDGE('',*,*,#197,.T.);
#280=ORIENTED_EDGE('',*,*,#199,.T.);
#281=ORIENTED_EDGE('',*,*,#201,.T.);
#282=ORIENTED_EDGE('',*,*,#202,.T.);
#283=CYLINDRICAL_SURFACE('',#345,3.);
#284=CYLINDRICAL_SURFACE('',#357,1.5);
#285=CYLINDRICAL_SURFACE('',#363,3.5);
#286=STYLED_ITEM('',(#556),#304);
#287=STYLED_ITEM('',(#556),#305);
#288=STYLED_ITEM('',(#556),#306);
#289=STYLED_ITEM('',(#556),#307);
#290=STYLED_ITEM('',(#556),#308);
#291=STYLED_ITEM('',(#556),#309);
#292=STYLED_ITEM('',(#556),#310);
#293=STYLED_ITEM('',(#556),#311);
#294=STYLED_ITEM('',(#556),#312);
#295=STYLED_ITEM('',(#556),#313);
#296=STYLED_ITEM('',(#556),#314);
#297=STYLED_ITEM('',(#556),#315);
#298=STYLED_ITEM('',(#556),#316);
#299=STYLED_ITEM('',(#556),#317);
#300=STYLED_ITEM('',(#556),#318);
#301=STYLED_ITEM('',(#556),#320);
#302=STYLED_ITEM('',(#556),#321);
#303=STYLED_ITEM('',(#555),#13);
#304=ADVANCED_FACE('',(#29),#283,.T.);
#305=ADVANCED_FACE('',(#30),#14,.T.);
#306=ADVANCED_FACE('',(#31),#15,.F.);
#307=ADVANCED_FACE('',(#32),#16,.T.);
#308=ADVANCED_FACE('',(#33),#17,.T.);
#309=ADVANCED_FACE('',(#34),#18,.T.);
#310=ADVANCED_FACE('',(#35),#19,.T.);
#311=ADVANCED_FACE('',(#36),#20,.T.);
#312=ADVANCED_FACE('',(#37),#284,.F.);
#313=ADVANCED_FACE('',(#38),#21,.T.);
#314=ADVANCED_FACE('',(#39),#22,.T.);
#315=ADVANCED_FACE('',(#40),#23,.T.);
#316=ADVANCED_FACE('',(#41),#24,.T.);
#317=ADVANCED_FACE('',(#42),#285,.F.);
#318=ADVANCED_FACE('',(#43),#25,.T.);
#319=ADVANCED_FACE('',(#44),#26,.T.);
#320=ADVANCED_FACE('',(#45),#27,.T.);
#321=ADVANCED_FACE('',(#46),#28,.F.);
#322=CLOSED_SHELL('',(#304,#305,#306,#307,#308,#309,#310,#311,#312,#313,
#314,#315,#316,#317,#318,#319,#320,#321));
#323=DERIVED_UNIT_ELEMENT(#326,1.);
#324=DERIVED_UNIT_ELEMENT(#541,-3.);
#325=DIMENSIONAL_EXPONENTS(0.,1.,0.,0.,0.,0.,0.);
#326=(
CONVERSION_BASED_UNIT('gram',#328)
MASS_UNIT()
NAMED_UNIT(#325)
);
#327=(
MASS_UNIT()
NAMED_UNIT(*)
SI_UNIT(.KILO.,.GRAM.)
);
#328=MASS_MEASURE_WITH_UNIT(MASS_MEASURE(0.001),#327);
#329=DERIVED_UNIT((#323,#324));
#330=MEASURE_REPRESENTATION_ITEM('density measure',
POSITIVE_RATIO_MEASURE(1.),#329);
#331=PROPERTY_DEFINITION_REPRESENTATION(#336,#333);
#332=PROPERTY_DEFINITION_REPRESENTATION(#337,#334);
#333=REPRESENTATION('material name',(#335),#538);
#334=REPRESENTATION('density',(#330),#538);
#335=DESCRIPTIVE_REPRESENTATION_ITEM('\X2\04220438043F043E0432044B0435\X0\',
'\X2\04220438043F043E0432044B0435\X0\');
#336=PROPERTY_DEFINITION('material property','material name',#548);
#337=PROPERTY_DEFINITION('material property','density of part',#548);
#338=DATE_TIME_ROLE('creation_date');
#339=APPLIED_DATE_AND_TIME_ASSIGNMENT(#340,#338,(#548));
#340=DATE_AND_TIME(#341,#342);
#341=CALENDAR_DATE(2019,26,2);
#342=LOCAL_TIME(0,0,0.,#343);
#343=COORDINATED_UNIVERSAL_TIME_OFFSET(0,0,.BEHIND.);
#344=AXIS2_PLACEMENT_3D('',#453,#369,#370);
#345=AXIS2_PLACEMENT_3D('',#454,#371,#372);
#346=AXIS2_PLACEMENT_3D('',#459,#374,#375);
#347=AXIS2_PLACEMENT_3D('',#462,#377,#378);
#348=AXIS2_PLACEMENT_3D('',#463,#379,#380);
#349=AXIS2_PLACEMENT_3D('',#471,#385,#386);
#350=AXIS2_PLACEMENT_3D('',#477,#390,#391);
#351=AXIS2_PLACEMENT_3D('',#480,#393,#394);
#352=AXIS2_PLACEMENT_3D('',#482,#396,#397);
#353=AXIS2_PLACEMENT_3D('',#485,#399,#400);
#354=AXIS2_PLACEMENT_3D('',#486,#401,#402);
#355=AXIS2_PLACEMENT_3D('',#490,#405,#406);
#356=AXIS2_PLACEMENT_3D('',#492,#408,#409);
#357=AXIS2_PLACEMENT_3D('',#493,#410,#411);
#358=AXIS2_PLACEMENT_3D('',#495,#413,#414);
#359=AXIS2_PLACEMENT_3D('',#501,#418,#419);
#360=AXIS2_PLACEMENT_3D('',#509,#423,#424);
#361=AXIS2_PLACEMENT_3D('',#513,#427,#428);
#362=AXIS2_PLACEMENT_3D('',#517,#431,#432);
#363=AXIS2_PLACEMENT_3D('',#521,#435,#436);
#364=AXIS2_PLACEMENT_3D('',#524,#438,#439);
#365=AXIS2_PLACEMENT_3D('',#525,#440,#441);
#366=AXIS2_PLACEMENT_3D('',#529,#444,#445);
#367=AXIS2_PLACEMENT_3D('',#533,#448,#449);
#368=AXIS2_PLACEMENT_3D('',#535,#451,#452);
#369=DIRECTION('axis',(0.,0.,1.));
#370=DIRECTION('refdir',(1.,0.,0.));
#371=DIRECTION('center_axis',(0.,-1.33226762955019E-15,1.));
#372=DIRECTION('ref_axis',(1.,0.,0.));
#373=DIRECTION('',(0.,1.33004450197884E-15,-1.));
#374=DIRECTION('center_axis',(0.,-1.33226762955019E-15,1.));
#375=DIRECTION('ref_axis',(1.,0.,0.));
#376=DIRECTION('',(0.,-1.33226762955019E-15,1.));
#377=DIRECTION('center_axis',(0.,1.33226762955019E-15,-1.));
#378=DIRECTION('ref_axis',(-1.75785312232317E-15,1.,1.48029736616688E-15));
#379=DIRECTION('center_axis',(2.33973902647908E-17,1.33226762955019E-15,
-1.));
#380=DIRECTION('ref_axis',(-1.83758917935762E-15,-1.,-1.33226762955019E-15));
#381=DIRECTION('',(-1.83758917935762E-15,-1.,-1.33226762955019E-15));
#382=DIRECTION('',(-1.,1.77635683940025E-15,-2.33973902647885E-17));
#383=DIRECTION('',(1.83758917935762E-15,1.,1.33226762955019E-15));
#384=DIRECTION('',(1.,-1.77635683940025E-15,2.33973902647885E-17));
#385=DIRECTION('center_axis',(1.88556619797495E-15,1.,1.33449075712154E-15));
#386=DIRECTION('ref_axis',(1.33226762955019E-15,1.33449075712153E-15,-1.));
#387=DIRECTION('',(0.,-1.33449075712154E-15,1.));
#388=DIRECTION('',(-1.,1.77635683940025E-15,-1.43975726321393E-15));
#389=DIRECTION('',(0.,1.33226762955019E-15,-1.));
#390=DIRECTION('center_axis',(0.,-1.33226762955019E-15,1.));
#391=DIRECTION('ref_axis',(1.,0.,0.));
#392=DIRECTION('',(1.83758917935762E-15,1.,1.33226762955019E-15));
#393=DIRECTION('center_axis',(0.,-1.33226762955019E-15,1.));
#394=DIRECTION('ref_axis',(1.,0.,0.));
#395=DIRECTION('',(-1.,0.,0.));
#396=DIRECTION('center_axis',(0.,1.33226762955019E-15,-1.));
#397=DIRECTION('ref_axis',(-1.,0.,0.));
#398=DIRECTION('',(1.,0.,0.));
#399=DIRECTION('center_axis',(0.,-1.33226762955019E-15,1.));
#400=DIRECTION('ref_axis',(1.,0.,0.));
#401=DIRECTION('center_axis',(0.,-1.33226762955019E-15,1.));
#402=DIRECTION('ref_axis',(1.83758917935762E-15,1.,1.33226762955019E-15));
#403=DIRECTION('',(-1.,1.83758917935762E-15,2.36658271566304E-30));
#404=DIRECTION('',(1.83758917935762E-15,1.,1.33226762955019E-15));
#405=DIRECTION('center_axis',(-1.,1.83758917935762E-15,2.36658271566304E-30));
#406=DIRECTION('ref_axis',(0.,-1.33226762955019E-15,1.));
#407=DIRECTION('',(0.,1.33226762955019E-15,-1.));
#408=DIRECTION('center_axis',(1.88556619797495E-15,1.,1.33004450197884E-15));
#409=DIRECTION('ref_axis',(1.33226762955019E-15,1.33004450197884E-15,-1.));
#410=DIRECTION('center_axis',(0.,-1.33226762955019E-15,1.));
#411=DIRECTION('ref_axis',(1.,0.,0.));
#412=DIRECTION('',(0.,1.33226762955019E-15,-1.));
#413=DIRECTION('center_axis',(0.,5.07530525542929E-16,-1.));
#414=DIRECTION('ref_axis',(-1.,0.,0.));
#415=DIRECTION('',(0.,-1.,-5.07530525542929E-16));
#416=DIRECTION('',(1.,0.,0.));
#417=DIRECTION('',(0.,-1.,-5.07530525542929E-16));
#418=DIRECTION('center_axis',(1.,0.,0.));
#419=DIRECTION('ref_axis',(0.,0.,-1.));
#420=DIRECTION('',(0.,1.,2.53765262771464E-16));
#421=DIRECTION('',(0.,0.,1.));
#422=DIRECTION('',(0.,-1.,-4.22942104619107E-16));
#423=DIRECTION('center_axis',(1.,0.,0.));
#424=DIRECTION('ref_axis',(0.,0.,-1.));
#425=DIRECTION('',(0.,1.,4.22942104619107E-16));
#426=DIRECTION('',(0.,0.,1.));
#427=DIRECTION('center_axis',(0.,-1.,0.));
#428=DIRECTION('ref_axis',(0.,0.,-1.));
#429=DIRECTION('',(1.,0.,0.));
#430=DIRECTION('',(0.,0.,1.));
#431=DIRECTION('center_axis',(0.,-4.22942104619107E-16,1.));
#432=DIRECTION('ref_axis',(1.,0.,0.));
#433=DIRECTION('',(1.,0.,0.));
#434=DIRECTION('',(0.,1.,4.22942104619107E-16));
#435=DIRECTION('center_axis',(1.,0.,0.));
#436=DIRECTION('ref_axis',(0.,0.,-1.));
#437=DIRECTION('',(1.,0.,0.));
#438=DIRECTION('center_axis',(1.,0.,0.));
#439=DIRECTION('ref_axis',(0.,0.,-1.));
#440=DIRECTION('center_axis',(0.,4.22942104619107E-16,-1.));
#441=DIRECTION('ref_axis',(-1.,0.,0.));
#442=DIRECTION('',(1.,0.,0.));
#443=DIRECTION('',(0.,-1.,-4.22942104619107E-16));
#444=DIRECTION('center_axis',(0.,-1.,0.));
#445=DIRECTION('ref_axis',(0.,0.,-1.));
#446=DIRECTION('',(1.,0.,0.));
#447=DIRECTION('',(0.,0.,1.));
#448=DIRECTION('center_axis',(0.,-2.53765262771464E-16,1.));
#449=DIRECTION('ref_axis',(1.,0.,0.));
#450=DIRECTION('',(0.,1.,2.53765262771464E-16));
#451=DIRECTION('center_axis',(1.,0.,0.));
#452=DIRECTION('ref_axis',(0.,0.,-1.));
#453=CARTESIAN_POINT('',(0.,0.,0.));
#454=CARTESIAN_POINT('Origin',(-1.5,32.,-10.));
#455=CARTESIAN_POINT('',(-1.49999999999999,35.,8.80239872208281E-15));
#456=CARTESIAN_POINT('',(-1.49999999999999,35.,-20.));
#457=CARTESIAN_POINT('',(-1.49999999999999,35.,-9.99999999999999));
#458=CARTESIAN_POINT('',(1.5,32.,8.12048840868685E-15));
#459=CARTESIAN_POINT('Origin',(-1.5,32.,3.33066907387547E-15));
#460=CARTESIAN_POINT('',(1.5,32.,-20.));
#461=CARTESIAN_POINT('',(1.5,32.,-15.));
#462=CARTESIAN_POINT('Origin',(-1.5,32.,-20.));
#463=CARTESIAN_POINT('Origin',(-1.5,33.5,-20.));
#464=CARTESIAN_POINT('',(-1.49999999999999,33.5,-20.));
#465=CARTESIAN_POINT('',(-1.5,33.83,-20.));
#466=CARTESIAN_POINT('',(-18.5,33.5,-20.));
#467=CARTESIAN_POINT('',(1.89292006587698,33.5,-20.));
#468=CARTESIAN_POINT('',(-18.5,35.,-20.));
#469=CARTESIAN_POINT('',(-18.5,33.5,-20.));
#470=CARTESIAN_POINT('',(1.89292006587698,35.,-20.));
#471=CARTESIAN_POINT('Origin',(-8.30353996706151,33.5,-9.99999999999999));
#472=CARTESIAN_POINT('',(-1.49999999999999,33.5,2.88657986402551E-15));
#473=CARTESIAN_POINT('',(-1.49999999999999,33.5,-9.99999999999999));
#474=CARTESIAN_POINT('',(-18.5,33.5,6.80399727775758E-15));
#475=CARTESIAN_POINT('',(1.89292006587698,33.5,7.77156117237619E-15));
#476=CARTESIAN_POINT('',(-18.5,33.5,6.80399727775758E-15));
#477=CARTESIAN_POINT('Origin',(-1.5,33.5,2.22044604925031E-15));
#478=CARTESIAN_POINT('',(-1.5,33.83,3.24684270685851E-15));
#479=CARTESIAN_POINT('',(0.,32.,8.12048840868685E-15));
#480=CARTESIAN_POINT('Origin',(-1.5,32.,4.44089209850063E-15));
#481=CARTESIAN_POINT('',(0.,32.,7.7715611723761E-15));
#482=CARTESIAN_POINT('Origin',(-1.50000000000001,35.,-20.));
#483=CARTESIAN_POINT('',(0.,32.,-20.));
#484=CARTESIAN_POINT('',(0.,32.,-20.));
#485=CARTESIAN_POINT('Origin',(-1.5,32.,-20.));
#486=CARTESIAN_POINT('Origin',(-1.5,33.5,2.8865798640255E-15));
#487=CARTESIAN_POINT('',(-18.5,35.,8.80239872208285E-15));
#488=CARTESIAN_POINT('',(-1.49999999999999,35.,8.80239872208281E-15));
#489=CARTESIAN_POINT('',(-18.5,33.5,6.80399727775758E-15));
#490=CARTESIAN_POINT('Origin',(-18.5,33.5,6.80399727775758E-15));
#491=CARTESIAN_POINT('',(-18.5,35.,8.80239872208285E-15));
#492=CARTESIAN_POINT('Origin',(-8.30353996706151,35.,-9.99999999999999));
#493=CARTESIAN_POINT('Origin',(-1.5,32.,-10.));
#494=CARTESIAN_POINT('',(0.,32.,-15.));
#495=CARTESIAN_POINT('Origin',(0.,35.,-20.));
#496=CARTESIAN_POINT('',(1.5,0.,-20.));
#497=CARTESIAN_POINT('',(1.5,35.,-20.));
#498=CARTESIAN_POINT('',(0.,0.,-20.));
#499=CARTESIAN_POINT('',(0.,0.,-20.));
#500=CARTESIAN_POINT('',(0.,35.,-20.));
#501=CARTESIAN_POINT('Origin',(1.5,16.788914117563,-10.));
#502=CARTESIAN_POINT('',(1.5,0.,0.));
#503=CARTESIAN_POINT('',(1.5,0.,0.));
#504=CARTESIAN_POINT('',(1.5,0.,-6.50000000000001));
#505=CARTESIAN_POINT('',(1.5,0.,-6.50000000000001));
#506=CARTESIAN_POINT('',(1.5,21.,-6.5));
#507=CARTESIAN_POINT('',(1.5,21.,-6.5));
#508=CARTESIAN_POINT('',(1.5,21.,-13.5));
#509=CARTESIAN_POINT('Origin',(1.5,21.,-10.));
#510=CARTESIAN_POINT('',(1.5,0.,-13.5));
#511=CARTESIAN_POINT('',(1.5,0.,-13.5));
#512=CARTESIAN_POINT('',(1.5,0.,-20.));
#513=CARTESIAN_POINT('Origin',(0.,0.,-20.));
#514=CARTESIAN_POINT('',(0.,0.,-13.5));
#515=CARTESIAN_POINT('',(0.,0.,-13.5));
#516=CARTESIAN_POINT('',(0.,0.,-20.));
#517=CARTESIAN_POINT('Origin',(0.,0.,-13.5));
#518=CARTESIAN_POINT('',(0.,21.,-13.5));
#519=CARTESIAN_POINT('',(0.,21.,-13.5));
#520=CARTESIAN_POINT('',(0.,0.,-13.5));
#521=CARTESIAN_POINT('Origin',(0.,21.,-10.));
#522=CARTESIAN_POINT('',(0.,21.,-6.5));
#523=CARTESIAN_POINT('',(0.,21.,-6.5));
#524=CARTESIAN_POINT('Origin',(0.,21.,-10.));
#525=CARTESIAN_POINT('Origin',(0.,21.,-6.5));
#526=CARTESIAN_POINT('',(0.,0.,-6.50000000000001));
#527=CARTESIAN_POINT('',(0.,0.,-6.50000000000001));
#528=CARTESIAN_POINT('',(0.,21.,-6.5));
#529=CARTESIAN_POINT('Origin',(0.,0.,-6.50000000000001));
#530=CARTESIAN_POINT('',(0.,0.,0.));
#531=CARTESIAN_POINT('',(0.,0.,0.));
#532=CARTESIAN_POINT('',(0.,0.,-6.50000000000001));
#533=CARTESIAN_POINT('Origin',(0.,0.,0.));
#534=CARTESIAN_POINT('',(0.,0.,0.));
#535=CARTESIAN_POINT('Origin',(0.,16.788914117563,-10.));
#536=UNCERTAINTY_MEASURE_WITH_UNIT(LENGTH_MEASURE(0.01),#540,
'DISTANCE_ACCURACY_VALUE',
'Maximum model space distance between geometric entities at asserted c
onnectivities');
#537=UNCERTAINTY_MEASURE_WITH_UNIT(LENGTH_MEASURE(0.01),#540,
'DISTANCE_ACCURACY_VALUE',
'Maximum model space distance between geometric entities at asserted c
onnectivities');
#538=(
GEOMETRIC_REPRESENTATION_CONTEXT(3)
GLOBAL_UNCERTAINTY_ASSIGNED_CONTEXT((#536))
GLOBAL_UNIT_ASSIGNED_CONTEXT((#540,#542,#543))
REPRESENTATION_CONTEXT('','3D')
);
#539=(
GEOMETRIC_REPRESENTATION_CONTEXT(3)
GLOBAL_UNCERTAINTY_ASSIGNED_CONTEXT((#537))
GLOBAL_UNIT_ASSIGNED_CONTEXT((#540,#542,#543))
REPRESENTATION_CONTEXT('','3D')
);
#540=(
LENGTH_UNIT()
NAMED_UNIT(*)
SI_UNIT(.MILLI.,.METRE.)
);
#541=(
LENGTH_UNIT()
NAMED_UNIT(*)
SI_UNIT(.CENTI.,.METRE.)
);
#542=(
NAMED_UNIT(*)
PLANE_ANGLE_UNIT()
SI_UNIT($,.RADIAN.)
);
#543=(
NAMED_UNIT(*)
SI_UNIT($,.STERADIAN.)
SOLID_ANGLE_UNIT()
);
#544=SHAPE_DEFINITION_REPRESENTATION(#545,#546);
#545=PRODUCT_DEFINITION_SHAPE('',$,#548);
#546=SHAPE_REPRESENTATION('',(#344),#538);
#547=PRODUCT_DEFINITION_CONTEXT('part definition',#552,'design');
#548=PRODUCT_DEFINITION('FKL','158000 FKplus',#549,#547);
#549=PRODUCT_DEFINITION_FORMATION('',$,#554);
#550=PRODUCT_RELATED_PRODUCT_CATEGORY('158000 FKplus','158000 FKplus',(#554));
#551=APPLICATION_PROTOCOL_DEFINITION('international standard',
'automotive_design',2009,#552);
#552=APPLICATION_CONTEXT(
'Core Data for Automotive Mechanical Design Process');
#553=PRODUCT_CONTEXT('part definition',#552,'mechanical');
#554=PRODUCT('FKL','158000 FKplus',$,(#553));
#555=PRESENTATION_STYLE_ASSIGNMENT((#557));
#556=PRESENTATION_STYLE_ASSIGNMENT((#558));
#557=SURFACE_STYLE_USAGE(.BOTH.,#563);
#558=SURFACE_STYLE_USAGE(.BOTH.,#564);
#559=SURFACE_STYLE_RENDERING_WITH_PROPERTIES($,#571,(#561));
#560=SURFACE_STYLE_RENDERING_WITH_PROPERTIES($,#572,(#562));
#561=SURFACE_STYLE_TRANSPARENT(0.);
#562=SURFACE_STYLE_TRANSPARENT(0.);
#563=SURFACE_SIDE_STYLE('',(#565,#559));
#564=SURFACE_SIDE_STYLE('',(#566,#560));
#565=SURFACE_STYLE_FILL_AREA(#567);
#566=SURFACE_STYLE_FILL_AREA(#568);
#567=FILL_AREA_STYLE('',(#569));
#568=FILL_AREA_STYLE('',(#570));
#569=FILL_AREA_STYLE_COLOUR('',#571);
#570=FILL_AREA_STYLE_COLOUR('',#572);
#571=COLOUR_RGB('',0.749019607843137,0.749019607843137,0.749019607843137);
#572=COLOUR_RGB('',0.745098039215686,0.737254901960784,0.729411764705882);
ENDSEC;
END-ISO-10303-21;
