ISO-10303-21;
HEADER;
/* Generated by software containing ST-Developer
 * from STEP Tools, Inc. (www.steptools.com) 
 */

FILE_DESCRIPTION(
/* description */ ('\X2\04280435044104420438043304400430043D043D0430044F\X0\ 
\X2\043304300439043A0430\X0\'),
/* implementation_level */ '2;1');

FILE_NAME(
/* name */ 'DIN 934 - M12 x 1,75.ipt.stp',
/* time_stamp */ '2023-05-19T14:26:39+03:00',
/* author */ ('\X2\042004420438044904350432\X0\ \X2\0410\X0\.\X2\041E\X0\.'),

/* organization */ (''),
/* preprocessor_version */ 'ST-DEVELOPER v19.2',
/* originating_system */ 'Autodesk Inventor 2023',
/* authorisation */ '');

FILE_SCHEMA (('AUTOMOTIVE_DESIGN { 1 0 10303 214 3 1 1 }'));
ENDSEC;

DATA;
#10=MECHANICAL_DESIGN_GEOMETRIC_PRESENTATION_REPRESENTATION('',(#13),#407);
#11=SHAPE_REPRESENTATION_RELATIONSHIP('SRR','None',#414,#12);
#12=ADVANCED_BREP_SHAPE_REPRESENTATION('',(#14),#406);
#13=STYLED_ITEM('',(#423),#14);
#14=MANIFOLD_SOLID_BREP('Solid1',#221);
#15=(
BOUNDED_CURVE()
B_SPLINE_CURVE(2,(#343,#344,#345),.UNSPECIFIED.,.F.,.F.)
B_SPLINE_CURVE_WITH_KNOTS((3,3),(0.,1.11001433117402),.UNSPECIFIED.)
CURVE()
GEOMETRIC_REPRESENTATION_ITEM()
RATIONAL_B_SPLINE_CURVE((1.,1.15470053837925,1.))
REPRESENTATION_ITEM('')
);
#16=(
BOUNDED_CURVE()
B_SPLINE_CURVE(2,(#347,#348,#349),.UNSPECIFIED.,.F.,.F.)
B_SPLINE_CURVE_WITH_KNOTS((3,3),(0.,1.11001433117402),.UNSPECIFIED.)
CURVE()
GEOMETRIC_REPRESENTATION_ITEM()
RATIONAL_B_SPLINE_CURVE((1.,1.15470053837925,1.))
REPRESENTATION_ITEM('')
);
#17=(
BOUNDED_CURVE()
B_SPLINE_CURVE(2,(#351,#352,#353),.UNSPECIFIED.,.F.,.F.)
B_SPLINE_CURVE_WITH_KNOTS((3,3),(0.,1.11001433117402),.UNSPECIFIED.)
CURVE()
GEOMETRIC_REPRESENTATION_ITEM()
RATIONAL_B_SPLINE_CURVE((1.,1.15470053837925,1.))
REPRESENTATION_ITEM('')
);
#18=(
BOUNDED_CURVE()
B_SPLINE_CURVE(2,(#355,#356,#357),.UNSPECIFIED.,.F.,.F.)
B_SPLINE_CURVE_WITH_KNOTS((3,3),(0.,1.11001433117402),.UNSPECIFIED.)
CURVE()
GEOMETRIC_REPRESENTATION_ITEM()
RATIONAL_B_SPLINE_CURVE((1.,1.15470053837925,1.))
REPRESENTATION_ITEM('')
);
#19=(
BOUNDED_CURVE()
B_SPLINE_CURVE(2,(#359,#360,#361),.UNSPECIFIED.,.F.,.F.)
B_SPLINE_CURVE_WITH_KNOTS((3,3),(0.,1.11001433117402),.UNSPECIFIED.)
CURVE()
GEOMETRIC_REPRESENTATION_ITEM()
RATIONAL_B_SPLINE_CURVE((1.,1.15470053837925,1.))
REPRESENTATION_ITEM('')
);
#20=(
BOUNDED_CURVE()
B_SPLINE_CURVE(2,(#363,#364,#365),.UNSPECIFIED.,.F.,.F.)
B_SPLINE_CURVE_WITH_KNOTS((3,3),(0.,1.11001433117402),.UNSPECIFIED.)
CURVE()
GEOMETRIC_REPRESENTATION_ITEM()
RATIONAL_B_SPLINE_CURVE((1.,1.15470053837925,1.))
REPRESENTATION_ITEM('')
);
#21=(
BOUNDED_CURVE()
B_SPLINE_CURVE(2,(#370,#371,#372),.UNSPECIFIED.,.F.,.F.)
B_SPLINE_CURVE_WITH_KNOTS((3,3),(0.,1.11001433117402),.UNSPECIFIED.)
CURVE()
GEOMETRIC_REPRESENTATION_ITEM()
RATIONAL_B_SPLINE_CURVE((1.,1.15470053837925,1.))
REPRESENTATION_ITEM('')
);
#22=(
BOUNDED_CURVE()
B_SPLINE_CURVE(2,(#374,#375,#376),.UNSPECIFIED.,.F.,.F.)
B_SPLINE_CURVE_WITH_KNOTS((3,3),(0.,1.11001433117402),.UNSPECIFIED.)
CURVE()
GEOMETRIC_REPRESENTATION_ITEM()
RATIONAL_B_SPLINE_CURVE((1.,1.15470053837925,1.))
REPRESENTATION_ITEM('')
);
#23=(
BOUNDED_CURVE()
B_SPLINE_CURVE(2,(#378,#379,#380),.UNSPECIFIED.,.F.,.F.)
B_SPLINE_CURVE_WITH_KNOTS((3,3),(0.,1.11001433117402),.UNSPECIFIED.)
CURVE()
GEOMETRIC_REPRESENTATION_ITEM()
RATIONAL_B_SPLINE_CURVE((1.,1.15470053837925,1.))
REPRESENTATION_ITEM('')
);
#24=(
BOUNDED_CURVE()
B_SPLINE_CURVE(2,(#382,#383,#384),.UNSPECIFIED.,.F.,.F.)
B_SPLINE_CURVE_WITH_KNOTS((3,3),(0.,1.11001433117402),.UNSPECIFIED.)
CURVE()
GEOMETRIC_REPRESENTATION_ITEM()
RATIONAL_B_SPLINE_CURVE((1.,1.15470053837925,1.))
REPRESENTATION_ITEM('')
);
#25=(
BOUNDED_CURVE()
B_SPLINE_CURVE(2,(#386,#387,#388),.UNSPECIFIED.,.F.,.F.)
B_SPLINE_CURVE_WITH_KNOTS((3,3),(0.,1.11001433117402),.UNSPECIFIED.)
CURVE()
GEOMETRIC_REPRESENTATION_ITEM()
RATIONAL_B_SPLINE_CURVE((1.,1.15470053837925,1.))
REPRESENTATION_ITEM('')
);
#26=(
BOUNDED_CURVE()
B_SPLINE_CURVE(2,(#389,#390,#391),.UNSPECIFIED.,.F.,.F.)
B_SPLINE_CURVE_WITH_KNOTS((3,3),(0.,1.11001433117402),.UNSPECIFIED.)
CURVE()
GEOMETRIC_REPRESENTATION_ITEM()
RATIONAL_B_SPLINE_CURVE((1.,1.15470053837925,1.))
REPRESENTATION_ITEM('')
);
#27=FACE_BOUND('',#54,.T.);
#28=FACE_BOUND('',#57,.T.);
#29=PLANE('',#250);
#30=PLANE('',#254);
#31=PLANE('',#258);
#32=PLANE('',#259);
#33=PLANE('',#260);
#34=PLANE('',#261);
#35=PLANE('',#262);
#36=PLANE('',#263);
#37=CYLINDRICAL_SURFACE('',#247,5.053);
#38=FACE_OUTER_BOUND('',#51,.T.);
#39=FACE_OUTER_BOUND('',#52,.T.);
#40=FACE_OUTER_BOUND('',#53,.T.);
#41=FACE_OUTER_BOUND('',#55,.T.);
#42=FACE_OUTER_BOUND('',#56,.T.);
#43=FACE_OUTER_BOUND('',#58,.T.);
#44=FACE_OUTER_BOUND('',#59,.T.);
#45=FACE_OUTER_BOUND('',#60,.T.);
#46=FACE_OUTER_BOUND('',#61,.T.);
#47=FACE_OUTER_BOUND('',#62,.T.);
#48=FACE_OUTER_BOUND('',#63,.T.);
#49=FACE_OUTER_BOUND('',#64,.T.);
#50=FACE_OUTER_BOUND('',#65,.T.);
#51=EDGE_LOOP('',(#144,#145,#146,#147));
#52=EDGE_LOOP('',(#148,#149,#150,#151,#152));
#53=EDGE_LOOP('',(#153));
#54=EDGE_LOOP('',(#154));
#55=EDGE_LOOP('',(#155,#156,#157,#158,#159));
#56=EDGE_LOOP('',(#160));
#57=EDGE_LOOP('',(#161));
#58=EDGE_LOOP('',(#162,#163,#164,#165,#166,#167,#168,#169,#170));
#59=EDGE_LOOP('',(#171,#172,#173,#174,#175,#176,#177,#178,#179));
#60=EDGE_LOOP('',(#180,#181,#182,#183));
#61=EDGE_LOOP('',(#184,#185,#186,#187));
#62=EDGE_LOOP('',(#188,#189,#190,#191));
#63=EDGE_LOOP('',(#192,#193,#194,#195));
#64=EDGE_LOOP('',(#196,#197,#198,#199));
#65=EDGE_LOOP('',(#200,#201,#202,#203));
#66=LINE('',#322,#77);
#67=LINE('',#329,#78);
#68=LINE('',#336,#79);
#69=LINE('',#362,#80);
#70=LINE('',#368,#81);
#71=LINE('',#393,#82);
#72=LINE('',#394,#83);
#73=LINE('',#396,#84);
#74=LINE('',#398,#85);
#75=LINE('',#400,#86);
#76=LINE('',#402,#87);
#77=VECTOR('',#270,5.52660764269462);
#78=VECTOR('',#279,5.053);
#79=VECTOR('',#288,5.52660764269462);
#80=VECTOR('',#295,9.78482755730145);
#81=VECTOR('',#298,9.78482755730145);
#82=VECTOR('',#301,10.);
#83=VECTOR('',#302,10.);
#84=VECTOR('',#305,10.);
#85=VECTOR('',#308,10.);
#86=VECTOR('',#311,10.);
#87=VECTOR('',#314,10.);
#88=CIRCLE('',#245,6.00021528538923);
#89=CIRCLE('',#246,5.053);
#90=CIRCLE('',#248,5.053);
#91=CIRCLE('',#249,5.053);
#92=CIRCLE('',#251,8.6);
#93=CIRCLE('',#253,6.00021528538923);
#94=CIRCLE('',#255,8.6);
#95=VERTEX_POINT('',#319);
#96=VERTEX_POINT('',#321);
#97=VERTEX_POINT('',#325);
#98=VERTEX_POINT('',#326);
#99=VERTEX_POINT('',#331);
#100=VERTEX_POINT('',#334);
#101=VERTEX_POINT('',#338);
#102=VERTEX_POINT('',#341);
#103=VERTEX_POINT('',#342);
#104=VERTEX_POINT('',#346);
#105=VERTEX_POINT('',#350);
#106=VERTEX_POINT('',#354);
#107=VERTEX_POINT('',#358);
#108=VERTEX_POINT('',#367);
#109=VERTEX_POINT('',#369);
#110=VERTEX_POINT('',#373);
#111=VERTEX_POINT('',#377);
#112=VERTEX_POINT('',#381);
#113=VERTEX_POINT('',#385);
#114=EDGE_CURVE('',#95,#95,#88,.T.);
#115=EDGE_CURVE('',#95,#96,#66,.T.);
#116=EDGE_CURVE('',#96,#96,#89,.T.);
#117=EDGE_CURVE('',#97,#98,#90,.T.);
#118=EDGE_CURVE('',#98,#97,#91,.T.);
#119=EDGE_CURVE('',#98,#96,#67,.T.);
#120=EDGE_CURVE('',#99,#99,#92,.T.);
#121=EDGE_CURVE('',#100,#100,#93,.T.);
#122=EDGE_CURVE('',#100,#97,#68,.T.);
#123=EDGE_CURVE('',#101,#101,#94,.T.);
#124=EDGE_CURVE('',#102,#103,#15,.T.);
#125=EDGE_CURVE('',#104,#102,#16,.T.);
#126=EDGE_CURVE('',#105,#104,#17,.T.);
#127=EDGE_CURVE('',#106,#105,#18,.T.);
#128=EDGE_CURVE('',#107,#106,#19,.T.);
#129=EDGE_CURVE('',#107,#99,#69,.T.);
#130=EDGE_CURVE('',#103,#107,#20,.T.);
#131=EDGE_CURVE('',#101,#108,#70,.T.);
#132=EDGE_CURVE('',#109,#108,#21,.T.);
#133=EDGE_CURVE('',#110,#109,#22,.T.);
#134=EDGE_CURVE('',#111,#110,#23,.T.);
#135=EDGE_CURVE('',#112,#111,#24,.T.);
#136=EDGE_CURVE('',#113,#112,#25,.T.);
#137=EDGE_CURVE('',#108,#113,#26,.T.);
#138=EDGE_CURVE('',#104,#111,#71,.T.);
#139=EDGE_CURVE('',#105,#110,#72,.T.);
#140=EDGE_CURVE('',#106,#109,#73,.T.);
#141=EDGE_CURVE('',#102,#112,#74,.T.);
#142=EDGE_CURVE('',#103,#113,#75,.T.);
#143=EDGE_CURVE('',#107,#108,#76,.T.);
#144=ORIENTED_EDGE('',*,*,#114,.T.);
#145=ORIENTED_EDGE('',*,*,#115,.T.);
#146=ORIENTED_EDGE('',*,*,#116,.T.);
#147=ORIENTED_EDGE('',*,*,#115,.F.);
#148=ORIENTED_EDGE('',*,*,#117,.F.);
#149=ORIENTED_EDGE('',*,*,#118,.F.);
#150=ORIENTED_EDGE('',*,*,#119,.T.);
#151=ORIENTED_EDGE('',*,*,#116,.F.);
#152=ORIENTED_EDGE('',*,*,#119,.F.);
#153=ORIENTED_EDGE('',*,*,#120,.T.);
#154=ORIENTED_EDGE('',*,*,#114,.F.);
#155=ORIENTED_EDGE('',*,*,#121,.T.);
#156=ORIENTED_EDGE('',*,*,#122,.T.);
#157=ORIENTED_EDGE('',*,*,#117,.T.);
#158=ORIENTED_EDGE('',*,*,#118,.T.);
#159=ORIENTED_EDGE('',*,*,#122,.F.);
#160=ORIENTED_EDGE('',*,*,#123,.T.);
#161=ORIENTED_EDGE('',*,*,#121,.F.);
#162=ORIENTED_EDGE('',*,*,#124,.F.);
#163=ORIENTED_EDGE('',*,*,#125,.F.);
#164=ORIENTED_EDGE('',*,*,#126,.F.);
#165=ORIENTED_EDGE('',*,*,#127,.F.);
#166=ORIENTED_EDGE('',*,*,#128,.F.);
#167=ORIENTED_EDGE('',*,*,#129,.T.);
#168=ORIENTED_EDGE('',*,*,#120,.F.);
#169=ORIENTED_EDGE('',*,*,#129,.F.);
#170=ORIENTED_EDGE('',*,*,#130,.F.);
#171=ORIENTED_EDGE('',*,*,#123,.F.);
#172=ORIENTED_EDGE('',*,*,#131,.T.);
#173=ORIENTED_EDGE('',*,*,#132,.F.);
#174=ORIENTED_EDGE('',*,*,#133,.F.);
#175=ORIENTED_EDGE('',*,*,#134,.F.);
#176=ORIENTED_EDGE('',*,*,#135,.F.);
#177=ORIENTED_EDGE('',*,*,#136,.F.);
#178=ORIENTED_EDGE('',*,*,#137,.F.);
#179=ORIENTED_EDGE('',*,*,#131,.F.);
#180=ORIENTED_EDGE('',*,*,#126,.T.);
#181=ORIENTED_EDGE('',*,*,#138,.T.);
#182=ORIENTED_EDGE('',*,*,#134,.T.);
#183=ORIENTED_EDGE('',*,*,#139,.F.);
#184=ORIENTED_EDGE('',*,*,#127,.T.);
#185=ORIENTED_EDGE('',*,*,#139,.T.);
#186=ORIENTED_EDGE('',*,*,#133,.T.);
#187=ORIENTED_EDGE('',*,*,#140,.F.);
#188=ORIENTED_EDGE('',*,*,#125,.T.);
#189=ORIENTED_EDGE('',*,*,#141,.T.);
#190=ORIENTED_EDGE('',*,*,#135,.T.);
#191=ORIENTED_EDGE('',*,*,#138,.F.);
#192=ORIENTED_EDGE('',*,*,#124,.T.);
#193=ORIENTED_EDGE('',*,*,#142,.T.);
#194=ORIENTED_EDGE('',*,*,#136,.T.);
#195=ORIENTED_EDGE('',*,*,#141,.F.);
#196=ORIENTED_EDGE('',*,*,#128,.T.);
#197=ORIENTED_EDGE('',*,*,#140,.T.);
#198=ORIENTED_EDGE('',*,*,#132,.T.);
#199=ORIENTED_EDGE('',*,*,#143,.F.);
#200=ORIENTED_EDGE('',*,*,#130,.T.);
#201=ORIENTED_EDGE('',*,*,#143,.T.);
#202=ORIENTED_EDGE('',*,*,#137,.T.);
#203=ORIENTED_EDGE('',*,*,#142,.F.);
#204=CONICAL_SURFACE('',#244,5.52660764269461,1.0471975511966);
#205=CONICAL_SURFACE('',#252,5.52660764269461,1.0471975511966);
#206=CONICAL_SURFACE('',#256,9.78482755730145,1.0471975511966);
#207=CONICAL_SURFACE('',#257,9.78482755730145,1.0471975511966);
#208=ADVANCED_FACE('',(#38),#204,.F.);
#209=ADVANCED_FACE('',(#39),#37,.F.);
#210=ADVANCED_FACE('',(#40,#27),#29,.F.);
#211=ADVANCED_FACE('',(#41),#205,.F.);
#212=ADVANCED_FACE('',(#42,#28),#30,.T.);
#213=ADVANCED_FACE('',(#43),#206,.T.);
#214=ADVANCED_FACE('',(#44),#207,.T.);
#215=ADVANCED_FACE('',(#45),#31,.T.);
#216=ADVANCED_FACE('',(#46),#32,.T.);
#217=ADVANCED_FACE('',(#47),#33,.T.);
#218=ADVANCED_FACE('',(#48),#34,.T.);
#219=ADVANCED_FACE('',(#49),#35,.T.);
#220=ADVANCED_FACE('',(#50),#36,.T.);
#221=CLOSED_SHELL('',(#208,#209,#210,#211,#212,#213,#214,#215,#216,#217,
#218,#219,#220));
#222=DERIVED_UNIT_ELEMENT(#225,1.);
#223=DERIVED_UNIT_ELEMENT(#409,-3.);
#224=DIMENSIONAL_EXPONENTS(0.,1.,0.,0.,0.,0.,0.);
#225=(
CONVERSION_BASED_UNIT('gram',#227)
MASS_UNIT()
NAMED_UNIT(#224)
);
#226=(
MASS_UNIT()
NAMED_UNIT(*)
SI_UNIT(.KILO.,.GRAM.)
);
#227=MASS_MEASURE_WITH_UNIT(MASS_MEASURE(0.001),#226);
#228=DERIVED_UNIT((#222,#223));
#229=MEASURE_REPRESENTATION_ITEM('density measure',
POSITIVE_RATIO_MEASURE(7.85),#228);
#230=PROPERTY_DEFINITION_REPRESENTATION(#235,#232);
#231=PROPERTY_DEFINITION_REPRESENTATION(#236,#233);
#232=REPRESENTATION('material name',(#234),#406);
#233=REPRESENTATION('density',(#229),#406);
#234=DESCRIPTIVE_REPRESENTATION_ITEM('\X2\042104420430043B044C\X0\, \X2\043C044F0433043A0430044F\X0\',
'\X2\042104420430043B044C\X0\, \X2\043C044F0433043A0430044F\X0\');
#235=PROPERTY_DEFINITION('material property','material name',#416);
#236=PROPERTY_DEFINITION('material property','density of part',#416);
#237=DATE_TIME_ROLE('creation_date');
#238=APPLIED_DATE_AND_TIME_ASSIGNMENT(#239,#237,(#416));
#239=DATE_AND_TIME(#240,#241);
#240=CALENDAR_DATE(2022,4,2);
#241=LOCAL_TIME(0,0,0.,#242);
#242=COORDINATED_UNIVERSAL_TIME_OFFSET(0,0,.BEHIND.);
#243=AXIS2_PLACEMENT_3D('',#317,#264,#265);
#244=AXIS2_PLACEMENT_3D('',#318,#266,#267);
#245=AXIS2_PLACEMENT_3D('',#320,#268,#269);
#246=AXIS2_PLACEMENT_3D('',#323,#271,#272);
#247=AXIS2_PLACEMENT_3D('',#324,#273,#274);
#248=AXIS2_PLACEMENT_3D('',#327,#275,#276);
#249=AXIS2_PLACEMENT_3D('',#328,#277,#278);
#250=AXIS2_PLACEMENT_3D('',#330,#280,#281);
#251=AXIS2_PLACEMENT_3D('',#332,#282,#283);
#252=AXIS2_PLACEMENT_3D('',#333,#284,#285);
#253=AXIS2_PLACEMENT_3D('',#335,#286,#287);
#254=AXIS2_PLACEMENT_3D('',#337,#289,#290);
#255=AXIS2_PLACEMENT_3D('',#339,#291,#292);
#256=AXIS2_PLACEMENT_3D('',#340,#293,#294);
#257=AXIS2_PLACEMENT_3D('',#366,#296,#297);
#258=AXIS2_PLACEMENT_3D('',#392,#299,#300);
#259=AXIS2_PLACEMENT_3D('',#395,#303,#304);
#260=AXIS2_PLACEMENT_3D('',#397,#306,#307);
#261=AXIS2_PLACEMENT_3D('',#399,#309,#310);
#262=AXIS2_PLACEMENT_3D('',#401,#312,#313);
#263=AXIS2_PLACEMENT_3D('',#403,#315,#316);
#264=DIRECTION('axis',(0.,0.,1.));
#265=DIRECTION('refdir',(1.,0.,0.));
#266=DIRECTION('center_axis',(-1.,0.,0.));
#267=DIRECTION('ref_axis',(0.,0.,-1.));
#268=DIRECTION('center_axis',(-1.,0.,0.));
#269=DIRECTION('ref_axis',(0.,0.,-1.));
#270=DIRECTION('',(0.5,-1.06057523872491E-16,-0.866025403784439));
#271=DIRECTION('center_axis',(1.,0.,0.));
#272=DIRECTION('ref_axis',(0.,0.,-1.));
#273=DIRECTION('center_axis',(1.,0.,0.));
#274=DIRECTION('ref_axis',(0.,0.,-1.));
#275=DIRECTION('center_axis',(-1.,0.,0.));
#276=DIRECTION('ref_axis',(0.,0.,1.));
#277=DIRECTION('center_axis',(-1.,0.,0.));
#278=DIRECTION('ref_axis',(0.,0.,1.));
#279=DIRECTION('',(-1.,0.,0.));
#280=DIRECTION('center_axis',(1.,0.,0.));
#281=DIRECTION('ref_axis',(0.,0.,-1.));
#282=DIRECTION('center_axis',(-1.,0.,0.));
#283=DIRECTION('ref_axis',(0.,1.,0.));
#284=DIRECTION('center_axis',(1.,0.,0.));
#285=DIRECTION('ref_axis',(0.,0.,1.));
#286=DIRECTION('center_axis',(1.,0.,0.));
#287=DIRECTION('ref_axis',(0.,0.,1.));
#288=DIRECTION('',(-0.5,-1.06057523872491E-16,0.866025403784439));
#289=DIRECTION('center_axis',(1.,0.,0.));
#290=DIRECTION('ref_axis',(0.,0.,-1.));
#291=DIRECTION('center_axis',(1.,0.,0.));
#292=DIRECTION('ref_axis',(1.01235461057874E-16,1.,0.));
#293=DIRECTION('center_axis',(1.,0.,0.));
#294=DIRECTION('ref_axis',(0.,1.,0.));
#295=DIRECTION('',(-0.5,0.866025403784439,-1.06057523872491E-16));
#296=DIRECTION('center_axis',(-1.,0.,0.));
#297=DIRECTION('ref_axis',(1.01235461057874E-16,1.,0.));
#298=DIRECTION('',(-0.5,-0.866025403784439,1.06057523872491E-16));
#299=DIRECTION('center_axis',(0.,0.866025403784439,-0.499999999999999));
#300=DIRECTION('ref_axis',(0.,0.499999999999999,0.866025403784439));
#301=DIRECTION('',(1.,0.,0.));
#302=DIRECTION('',(1.,0.,0.));
#303=DIRECTION('center_axis',(0.,1.82175412394232E-15,-1.));
#304=DIRECTION('ref_axis',(-1.,0.,0.));
#305=DIRECTION('',(1.,0.,0.));
#306=DIRECTION('center_axis',(0.,0.866025403784438,0.500000000000001));
#307=DIRECTION('ref_axis',(1.,0.,0.));
#308=DIRECTION('',(1.,0.,0.));
#309=DIRECTION('center_axis',(0.,0.,1.));
#310=DIRECTION('ref_axis',(1.,0.,0.));
#311=DIRECTION('',(1.,0.,0.));
#312=DIRECTION('center_axis',(0.,-0.866025403784438,-0.5));
#313=DIRECTION('ref_axis',(-1.,0.,0.));
#314=DIRECTION('',(1.,0.,0.));
#315=DIRECTION('center_axis',(0.,-0.866025403784439,0.5));
#316=DIRECTION('ref_axis',(0.,-0.5,-0.866025403784439));
#317=CARTESIAN_POINT('',(0.,0.,0.));
#318=CARTESIAN_POINT('Origin',(0.2734375,0.,0.));
#319=CARTESIAN_POINT('',(0.,7.34814444344694E-16,6.00021528538923));
#320=CARTESIAN_POINT('Origin',(0.,0.,0.));
#321=CARTESIAN_POINT('',(0.546875,-6.18814027609158E-16,5.053));
#322=CARTESIAN_POINT('',(0.2734375,6.76814235976926E-16,5.52660764269461));
#323=CARTESIAN_POINT('Origin',(0.546875,0.,0.));
#324=CARTESIAN_POINT('Origin',(-20.8403484302096,0.,0.));
#325=CARTESIAN_POINT('',(9.453125,-6.18814027609158E-16,-5.053));
#326=CARTESIAN_POINT('',(9.453125,-6.18814027609158E-16,5.053));
#327=CARTESIAN_POINT('Origin',(9.453125,0.,0.));
#328=CARTESIAN_POINT('Origin',(9.453125,0.,0.));
#329=CARTESIAN_POINT('',(-20.8403484302096,-6.18814027609158E-16,5.053));
#330=CARTESIAN_POINT('Origin',(0.,5.55111512312578E-16,-6.80011602582908E-15));
#331=CARTESIAN_POINT('',(1.38777878078145E-16,-8.6,1.05319624726672E-15));
#332=CARTESIAN_POINT('Origin',(0.,0.,0.));
#333=CARTESIAN_POINT('Origin',(9.7265625,0.,0.));
#334=CARTESIAN_POINT('',(10.,7.34814444344694E-16,-6.00021528538923));
#335=CARTESIAN_POINT('Origin',(10.,0.,0.));
#336=CARTESIAN_POINT('',(9.7265625,6.76814235976926E-16,-5.52660764269461));
#337=CARTESIAN_POINT('Origin',(10.,2.77555756156289E-16,-6.93889390390723E-15));
#338=CARTESIAN_POINT('',(10.,-8.6,1.05319624726672E-15));
#339=CARTESIAN_POINT('Origin',(10.,0.,0.));
#340=CARTESIAN_POINT('Origin',(0.684060509151275,0.,0.));
#341=CARTESIAN_POINT('',(1.36812101830255,5.48482755730145,9.5));
#342=CARTESIAN_POINT('',(1.36812101830255,-5.48482755730145,9.5));
#343=CARTESIAN_POINT('Ctrl Pts',(1.36812101830255,5.48482755730145,9.5));
#344=CARTESIAN_POINT('Ctrl Pts',(-0.215212315030785,0.,9.5));
#345=CARTESIAN_POINT('Ctrl Pts',(1.36812101830255,-5.48482755730145,9.5));
#346=CARTESIAN_POINT('',(1.36812101830255,10.9696551146029,0.));
#347=CARTESIAN_POINT('Ctrl Pts',(1.36812101830255,10.9696551146029,4.35630292224159E-15));
#348=CARTESIAN_POINT('Ctrl Pts',(-0.215212315030783,8.22724133595216,4.75000000000001));
#349=CARTESIAN_POINT('Ctrl Pts',(1.36812101830255,5.48482755730144,9.50000000000001));
#350=CARTESIAN_POINT('',(1.36812101830255,5.48482755730147,-9.49999999999999));
#351=CARTESIAN_POINT('Ctrl Pts',(1.36812101830255,5.48482755730147,-9.49999999999998));
#352=CARTESIAN_POINT('Ctrl Pts',(-0.215212315030774,8.22724133595218,-4.74999999999999));
#353=CARTESIAN_POINT('Ctrl Pts',(1.36812101830255,10.9696551146029,6.22328988891656E-16));
#354=CARTESIAN_POINT('',(1.36812101830255,-5.48482755730141,-9.50000000000002));
#355=CARTESIAN_POINT('Ctrl Pts',(1.36812101830255,-5.48482755730141,-9.50000000000002));
#356=CARTESIAN_POINT('Ctrl Pts',(-0.21521231503077,1.76491358306528E-14,
-9.50000000000001));
#357=CARTESIAN_POINT('Ctrl Pts',(1.36812101830255,5.48482755730144,-9.5));
#358=CARTESIAN_POINT('',(1.36812101830255,-10.9696551146029,-1.11022302462516E-15));
#359=CARTESIAN_POINT('Ctrl Pts',(1.36812101830255,-10.9696551146029,6.22328988891656E-16));
#360=CARTESIAN_POINT('Ctrl Pts',(-0.215212315030784,-8.22724133595217,-4.75));
#361=CARTESIAN_POINT('Ctrl Pts',(1.36812101830255,-5.48482755730144,-9.50000000000001));
#362=CARTESIAN_POINT('',(0.684060509151275,-9.78482755730145,1.1982957748258E-15));
#363=CARTESIAN_POINT('Ctrl Pts',(1.36812101830255,-5.48482755730145,9.5));
#364=CARTESIAN_POINT('Ctrl Pts',(-0.21521231503078,-8.22724133595217,4.75));
#365=CARTESIAN_POINT('Ctrl Pts',(1.36812101830255,-10.9696551146029,0.));
#366=CARTESIAN_POINT('Origin',(9.31593949084873,0.,0.));
#367=CARTESIAN_POINT('',(8.63187898169745,-10.9696551146029,-1.11022302462516E-15));
#368=CARTESIAN_POINT('',(9.31593949084872,-9.78482755730145,1.1982957748258E-15));
#369=CARTESIAN_POINT('',(8.63187898169745,-5.48482755730141,-9.50000000000002));
#370=CARTESIAN_POINT('Ctrl Pts',(8.63187898169745,-5.48482755730144,-9.50000000000001));
#371=CARTESIAN_POINT('Ctrl Pts',(10.2152123150308,-8.22724133595217,-4.75));
#372=CARTESIAN_POINT('Ctrl Pts',(8.63187898169745,-10.9696551146029,0.));
#373=CARTESIAN_POINT('',(8.63187898169745,5.48482755730147,-9.49999999999999));
#374=CARTESIAN_POINT('Ctrl Pts',(8.63187898169745,5.48482755730145,-9.5));
#375=CARTESIAN_POINT('Ctrl Pts',(10.2152123150308,1.77635683940025E-14,
-9.50000000000001));
#376=CARTESIAN_POINT('Ctrl Pts',(8.63187898169745,-5.48482755730141,-9.50000000000002));
#377=CARTESIAN_POINT('',(8.63187898169745,10.9696551146029,0.));
#378=CARTESIAN_POINT('Ctrl Pts',(8.63187898169745,10.9696551146029,1.86698696667497E-15));
#379=CARTESIAN_POINT('Ctrl Pts',(10.2152123150308,8.22724133595218,-4.74999999999999));
#380=CARTESIAN_POINT('Ctrl Pts',(8.63187898169745,5.48482755730147,-9.49999999999998));
#381=CARTESIAN_POINT('',(8.63187898169745,5.48482755730145,9.5));
#382=CARTESIAN_POINT('Ctrl Pts',(8.63187898169745,5.48482755730144,9.50000000000001));
#383=CARTESIAN_POINT('Ctrl Pts',(10.2152123150308,8.22724133595217,4.75000000000001));
#384=CARTESIAN_POINT('Ctrl Pts',(8.63187898169745,10.9696551146029,3.73397393334994E-15));
#385=CARTESIAN_POINT('',(8.63187898169745,-5.48482755730145,9.5));
#386=CARTESIAN_POINT('Ctrl Pts',(8.63187898169745,-5.48482755730146,9.5));
#387=CARTESIAN_POINT('Ctrl Pts',(10.2152123150308,0.,9.5));
#388=CARTESIAN_POINT('Ctrl Pts',(8.63187898169745,5.48482755730146,9.5));
#389=CARTESIAN_POINT('Ctrl Pts',(8.63187898169745,-10.9696551146029,-1.24465797778331E-15));
#390=CARTESIAN_POINT('Ctrl Pts',(10.2152123150308,-8.22724133595217,4.75));
#391=CARTESIAN_POINT('Ctrl Pts',(8.63187898169745,-5.48482755730145,9.5));
#392=CARTESIAN_POINT('Origin',(0.,10.9696551146029,2.86565260874789E-15));
#393=CARTESIAN_POINT('',(0.,10.9696551146029,2.86565260874789E-15));
#394=CARTESIAN_POINT('',(0.,5.48482755730146,-9.5));
#395=CARTESIAN_POINT('Origin',(0.,5.48482755730146,-9.5));
#396=CARTESIAN_POINT('',(0.,-5.48482755730143,-9.50000000000002));
#397=CARTESIAN_POINT('Origin',(0.,5.48482755730144,9.5));
#398=CARTESIAN_POINT('',(0.,5.48482755730144,9.5));
#399=CARTESIAN_POINT('Origin',(0.,-5.48482755730145,9.5));
#400=CARTESIAN_POINT('',(0.,-5.48482755730145,9.5));
#401=CARTESIAN_POINT('Origin',(0.,-5.48482755730143,-9.50000000000002));
#402=CARTESIAN_POINT('',(0.,-10.9696551146029,4.29899872662046E-16));
#403=CARTESIAN_POINT('Origin',(0.,-10.9696551146029,4.29899872662046E-16));
#404=UNCERTAINTY_MEASURE_WITH_UNIT(LENGTH_MEASURE(0.01),#408,
'DISTANCE_ACCURACY_VALUE',
'Maximum model space distance between geometric entities at asserted c
onnectivities');
#405=UNCERTAINTY_MEASURE_WITH_UNIT(LENGTH_MEASURE(0.01),#408,
'DISTANCE_ACCURACY_VALUE',
'Maximum model space distance between geometric entities at asserted c
onnectivities');
#406=(
GEOMETRIC_REPRESENTATION_CONTEXT(3)
GLOBAL_UNCERTAINTY_ASSIGNED_CONTEXT((#404))
GLOBAL_UNIT_ASSIGNED_CONTEXT((#408,#410,#411))
REPRESENTATION_CONTEXT('','3D')
);
#407=(
GEOMETRIC_REPRESENTATION_CONTEXT(3)
GLOBAL_UNCERTAINTY_ASSIGNED_CONTEXT((#405))
GLOBAL_UNIT_ASSIGNED_CONTEXT((#408,#410,#411))
REPRESENTATION_CONTEXT('','3D')
);
#408=(
LENGTH_UNIT()
NAMED_UNIT(*)
SI_UNIT(.MILLI.,.METRE.)
);
#409=(
LENGTH_UNIT()
NAMED_UNIT(*)
SI_UNIT(.CENTI.,.METRE.)
);
#410=(
NAMED_UNIT(*)
PLANE_ANGLE_UNIT()
SI_UNIT($,.RADIAN.)
);
#411=(
NAMED_UNIT(*)
SI_UNIT($,.STERADIAN.)
SOLID_ANGLE_UNIT()
);
#412=SHAPE_DEFINITION_REPRESENTATION(#413,#414);
#413=PRODUCT_DEFINITION_SHAPE('',$,#416);
#414=SHAPE_REPRESENTATION('',(#243),#406);
#415=PRODUCT_DEFINITION_CONTEXT('part definition',#420,'design');
#416=PRODUCT_DEFINITION('DIN 934 - M12','DIN 934 - M12 x 1,75',#417,#415);
#417=PRODUCT_DEFINITION_FORMATION('',$,#422);
#418=PRODUCT_RELATED_PRODUCT_CATEGORY('DIN 934 - M12 x 1,75',
'DIN 934 - M12 x 1,75',(#422));
#419=APPLICATION_PROTOCOL_DEFINITION('international standard',
'automotive_design',2009,#420);
#420=APPLICATION_CONTEXT(
'Core Data for Automotive Mechanical Design Process');
#421=PRODUCT_CONTEXT('part definition',#420,'mechanical');
#422=PRODUCT('DIN 934 - M12','DIN 934 - M12 x 1,75',
'\X2\04280435044104420438043304400430043D043D0430044F\X0\ \X2\043304300439043A0430\X0\',
(#421));
#423=PRESENTATION_STYLE_ASSIGNMENT((#424));
#424=SURFACE_STYLE_USAGE(.BOTH.,#427);
#425=SURFACE_STYLE_RENDERING_WITH_PROPERTIES($,#431,(#426));
#426=SURFACE_STYLE_TRANSPARENT(0.);
#427=SURFACE_SIDE_STYLE('',(#428,#425));
#428=SURFACE_STYLE_FILL_AREA(#429);
#429=FILL_AREA_STYLE('',(#430));
#430=FILL_AREA_STYLE_COLOUR('',#431);
#431=COLOUR_RGB('',0.745098039215686,0.737254901960784,0.729411764705882);
ENDSEC;
END-ISO-10303-21;
