ISO-10303-21;
HEADER;
/* Generated by software containing ST-Developer
 * from STEP Tools, Inc. (www.steptools.com) 
 */

FILE_DESCRIPTION(
/* description */ (''),
/* implementation_level */ '2;1');

FILE_NAME(
/* name */ '308150 PSx5.ipt.stp',
/* time_stamp */ '2023-05-16T17:46:21+03:00',
/* author */ ('Man88'),
/* organization */ (''),
/* preprocessor_version */ 'ST-DEVELOPER v19.2',
/* originating_system */ 'Autodesk Inventor 2023',
/* authorisation */ '');

FILE_SCHEMA (('AUTOMOTIVE_DESIGN { 1 0 10303 214 3 1 1 }'));
ENDSEC;

DATA;
#10=MECHANICAL_DESIGN_GEOMETRIC_PRESENTATION_REPRESENTATION('',(#13),#527);
#11=SHAPE_REPRESENTATION_RELATIONSHIP('SRR','None',#534,#12);
#12=ADVANCED_BREP_SHAPE_REPRESENTATION('',(#14),#526);
#13=STYLED_ITEM('',(#543),#14);
#14=MANIFOLD_SOLID_BREP('\X2\04220432043504400434043E0435\X0\ \X2\04420435043B043E\X0\1',
#298);
#15=FACE_BOUND('',#48,.T.);
#16=FACE_BOUND('',#49,.T.);
#17=FACE_BOUND('',#50,.T.);
#18=FACE_BOUND('',#51,.T.);
#19=FACE_BOUND('',#52,.T.);
#20=FACE_BOUND('',#66,.T.);
#21=FACE_BOUND('',#67,.T.);
#22=FACE_BOUND('',#68,.T.);
#23=FACE_BOUND('',#69,.T.);
#24=FACE_BOUND('',#70,.T.);
#25=PLANE('',#324);
#26=PLANE('',#333);
#27=PLANE('',#338);
#28=PLANE('',#351);
#29=PLANE('',#352);
#30=PLANE('',#353);
#31=FACE_OUTER_BOUND('',#46,.T.);
#32=FACE_OUTER_BOUND('',#47,.T.);
#33=FACE_OUTER_BOUND('',#53,.T.);
#34=FACE_OUTER_BOUND('',#54,.T.);
#35=FACE_OUTER_BOUND('',#55,.T.);
#36=FACE_OUTER_BOUND('',#56,.T.);
#37=FACE_OUTER_BOUND('',#57,.T.);
#38=FACE_OUTER_BOUND('',#58,.T.);
#39=FACE_OUTER_BOUND('',#59,.T.);
#40=FACE_OUTER_BOUND('',#60,.T.);
#41=FACE_OUTER_BOUND('',#61,.T.);
#42=FACE_OUTER_BOUND('',#62,.T.);
#43=FACE_OUTER_BOUND('',#63,.T.);
#44=FACE_OUTER_BOUND('',#64,.T.);
#45=FACE_OUTER_BOUND('',#65,.T.);
#46=EDGE_LOOP('',(#196,#197,#198,#199));
#47=EDGE_LOOP('',(#200,#201,#202,#203,#204,#205,#206,#207));
#48=EDGE_LOOP('',(#208));
#49=EDGE_LOOP('',(#209));
#50=EDGE_LOOP('',(#210));
#51=EDGE_LOOP('',(#211));
#52=EDGE_LOOP('',(#212));
#53=EDGE_LOOP('',(#213,#214,#215,#216));
#54=EDGE_LOOP('',(#217,#218,#219,#220));
#55=EDGE_LOOP('',(#221,#222,#223,#224));
#56=EDGE_LOOP('',(#225,#226,#227,#228));
#57=EDGE_LOOP('',(#229,#230,#231,#232));
#58=EDGE_LOOP('',(#233,#234,#235,#236));
#59=EDGE_LOOP('',(#237,#238,#239,#240));
#60=EDGE_LOOP('',(#241,#242,#243,#244));
#61=EDGE_LOOP('',(#245,#246,#247,#248));
#62=EDGE_LOOP('',(#249,#250,#251,#252));
#63=EDGE_LOOP('',(#253,#254,#255,#256));
#64=EDGE_LOOP('',(#257,#258,#259,#260));
#65=EDGE_LOOP('',(#261,#262,#263,#264,#265,#266,#267,#268));
#66=EDGE_LOOP('',(#269));
#67=EDGE_LOOP('',(#270));
#68=EDGE_LOOP('',(#271));
#69=EDGE_LOOP('',(#272));
#70=EDGE_LOOP('',(#273));
#71=LINE('',#449,#92);
#72=LINE('',#452,#93);
#73=LINE('',#455,#94);
#74=LINE('',#459,#95);
#75=LINE('',#463,#96);
#76=LINE('',#466,#97);
#77=LINE('',#479,#98);
#78=LINE('',#480,#99);
#79=LINE('',#484,#100);
#80=LINE('',#489,#101);
#81=LINE('',#490,#102);
#82=LINE('',#493,#103);
#83=LINE('',#494,#104);
#84=LINE('',#498,#105);
#85=LINE('',#501,#106);
#86=LINE('',#505,#107);
#87=LINE('',#509,#108);
#88=LINE('',#513,#109);
#89=LINE('',#517,#110);
#90=LINE('',#520,#111);
#91=LINE('',#522,#112);
#92=VECTOR('',#360,10.);
#93=VECTOR('',#363,10.);
#94=VECTOR('',#366,10.);
#95=VECTOR('',#369,10.);
#96=VECTOR('',#372,10.);
#97=VECTOR('',#375,10.);
#98=VECTOR('',#388,10.);
#99=VECTOR('',#389,10.);
#100=VECTOR('',#394,10.);
#101=VECTOR('',#399,10.);
#102=VECTOR('',#400,10.);
#103=VECTOR('',#403,10.);
#104=VECTOR('',#404,10.);
#105=VECTOR('',#409,10.);
#106=VECTOR('',#412,7.);
#107=VECTOR('',#417,7.);
#108=VECTOR('',#422,7.);
#109=VECTOR('',#427,7.);
#110=VECTOR('',#432,7.);
#111=VECTOR('',#437,10.);
#112=VECTOR('',#440,10.);
#113=CIRCLE('',#322,3.);
#114=CIRCLE('',#323,3.);
#115=CIRCLE('',#325,3.);
#116=CIRCLE('',#326,3.);
#117=CIRCLE('',#327,3.);
#118=CIRCLE('',#328,7.);
#119=CIRCLE('',#329,7.);
#120=CIRCLE('',#330,7.);
#121=CIRCLE('',#331,7.);
#122=CIRCLE('',#332,7.);
#123=CIRCLE('',#335,3.);
#124=CIRCLE('',#337,3.);
#125=CIRCLE('',#340,3.);
#126=CIRCLE('',#342,7.);
#127=CIRCLE('',#344,7.);
#128=CIRCLE('',#346,7.);
#129=CIRCLE('',#348,7.);
#130=CIRCLE('',#350,7.);
#131=VERTEX_POINT('',#445);
#132=VERTEX_POINT('',#446);
#133=VERTEX_POINT('',#448);
#134=VERTEX_POINT('',#450);
#135=VERTEX_POINT('',#454);
#136=VERTEX_POINT('',#456);
#137=VERTEX_POINT('',#458);
#138=VERTEX_POINT('',#460);
#139=VERTEX_POINT('',#462);
#140=VERTEX_POINT('',#464);
#141=VERTEX_POINT('',#467);
#142=VERTEX_POINT('',#469);
#143=VERTEX_POINT('',#471);
#144=VERTEX_POINT('',#473);
#145=VERTEX_POINT('',#475);
#146=VERTEX_POINT('',#478);
#147=VERTEX_POINT('',#482);
#148=VERTEX_POINT('',#486);
#149=VERTEX_POINT('',#487);
#150=VERTEX_POINT('',#492);
#151=VERTEX_POINT('',#496);
#152=VERTEX_POINT('',#500);
#153=VERTEX_POINT('',#504);
#154=VERTEX_POINT('',#508);
#155=VERTEX_POINT('',#512);
#156=VERTEX_POINT('',#516);
#157=EDGE_CURVE('',#131,#132,#113,.T.);
#158=EDGE_CURVE('',#132,#133,#71,.T.);
#159=EDGE_CURVE('',#133,#134,#114,.T.);
#160=EDGE_CURVE('',#134,#131,#72,.T.);
#161=EDGE_CURVE('',#133,#135,#73,.T.);
#162=EDGE_CURVE('',#136,#135,#115,.T.);
#163=EDGE_CURVE('',#136,#137,#74,.T.);
#164=EDGE_CURVE('',#138,#137,#116,.T.);
#165=EDGE_CURVE('',#138,#139,#75,.T.);
#166=EDGE_CURVE('',#140,#139,#117,.T.);
#167=EDGE_CURVE('',#140,#134,#76,.T.);
#168=EDGE_CURVE('',#141,#141,#118,.T.);
#169=EDGE_CURVE('',#142,#142,#119,.T.);
#170=EDGE_CURVE('',#143,#143,#120,.T.);
#171=EDGE_CURVE('',#144,#144,#121,.T.);
#172=EDGE_CURVE('',#145,#145,#122,.T.);
#173=EDGE_CURVE('',#132,#146,#77,.T.);
#174=EDGE_CURVE('',#135,#146,#78,.T.);
#175=EDGE_CURVE('',#146,#147,#123,.T.);
#176=EDGE_CURVE('',#147,#136,#79,.T.);
#177=EDGE_CURVE('',#148,#149,#124,.T.);
#178=EDGE_CURVE('',#149,#140,#80,.T.);
#179=EDGE_CURVE('',#139,#148,#81,.T.);
#180=EDGE_CURVE('',#150,#138,#82,.T.);
#181=EDGE_CURVE('',#150,#148,#83,.T.);
#182=EDGE_CURVE('',#151,#150,#125,.T.);
#183=EDGE_CURVE('',#137,#151,#84,.T.);
#184=EDGE_CURVE('',#141,#152,#85,.T.);
#185=EDGE_CURVE('',#152,#152,#126,.T.);
#186=EDGE_CURVE('',#142,#153,#86,.T.);
#187=EDGE_CURVE('',#153,#153,#127,.T.);
#188=EDGE_CURVE('',#143,#154,#87,.T.);
#189=EDGE_CURVE('',#154,#154,#128,.T.);
#190=EDGE_CURVE('',#144,#155,#88,.T.);
#191=EDGE_CURVE('',#155,#155,#129,.T.);
#192=EDGE_CURVE('',#145,#156,#89,.T.);
#193=EDGE_CURVE('',#156,#156,#130,.T.);
#194=EDGE_CURVE('',#149,#131,#90,.T.);
#195=EDGE_CURVE('',#147,#151,#91,.T.);
#196=ORIENTED_EDGE('',*,*,#157,.T.);
#197=ORIENTED_EDGE('',*,*,#158,.T.);
#198=ORIENTED_EDGE('',*,*,#159,.T.);
#199=ORIENTED_EDGE('',*,*,#160,.T.);
#200=ORIENTED_EDGE('',*,*,#159,.F.);
#201=ORIENTED_EDGE('',*,*,#161,.T.);
#202=ORIENTED_EDGE('',*,*,#162,.F.);
#203=ORIENTED_EDGE('',*,*,#163,.T.);
#204=ORIENTED_EDGE('',*,*,#164,.F.);
#205=ORIENTED_EDGE('',*,*,#165,.T.);
#206=ORIENTED_EDGE('',*,*,#166,.F.);
#207=ORIENTED_EDGE('',*,*,#167,.T.);
#208=ORIENTED_EDGE('',*,*,#168,.T.);
#209=ORIENTED_EDGE('',*,*,#169,.T.);
#210=ORIENTED_EDGE('',*,*,#170,.T.);
#211=ORIENTED_EDGE('',*,*,#171,.T.);
#212=ORIENTED_EDGE('',*,*,#172,.T.);
#213=ORIENTED_EDGE('',*,*,#158,.F.);
#214=ORIENTED_EDGE('',*,*,#173,.T.);
#215=ORIENTED_EDGE('',*,*,#174,.F.);
#216=ORIENTED_EDGE('',*,*,#161,.F.);
#217=ORIENTED_EDGE('',*,*,#175,.T.);
#218=ORIENTED_EDGE('',*,*,#176,.T.);
#219=ORIENTED_EDGE('',*,*,#162,.T.);
#220=ORIENTED_EDGE('',*,*,#174,.T.);
#221=ORIENTED_EDGE('',*,*,#177,.T.);
#222=ORIENTED_EDGE('',*,*,#178,.T.);
#223=ORIENTED_EDGE('',*,*,#166,.T.);
#224=ORIENTED_EDGE('',*,*,#179,.T.);
#225=ORIENTED_EDGE('',*,*,#179,.F.);
#226=ORIENTED_EDGE('',*,*,#165,.F.);
#227=ORIENTED_EDGE('',*,*,#180,.F.);
#228=ORIENTED_EDGE('',*,*,#181,.T.);
#229=ORIENTED_EDGE('',*,*,#182,.T.);
#230=ORIENTED_EDGE('',*,*,#180,.T.);
#231=ORIENTED_EDGE('',*,*,#164,.T.);
#232=ORIENTED_EDGE('',*,*,#183,.T.);
#233=ORIENTED_EDGE('',*,*,#168,.F.);
#234=ORIENTED_EDGE('',*,*,#184,.T.);
#235=ORIENTED_EDGE('',*,*,#185,.F.);
#236=ORIENTED_EDGE('',*,*,#184,.F.);
#237=ORIENTED_EDGE('',*,*,#169,.F.);
#238=ORIENTED_EDGE('',*,*,#186,.T.);
#239=ORIENTED_EDGE('',*,*,#187,.F.);
#240=ORIENTED_EDGE('',*,*,#186,.F.);
#241=ORIENTED_EDGE('',*,*,#170,.F.);
#242=ORIENTED_EDGE('',*,*,#188,.T.);
#243=ORIENTED_EDGE('',*,*,#189,.F.);
#244=ORIENTED_EDGE('',*,*,#188,.F.);
#245=ORIENTED_EDGE('',*,*,#171,.F.);
#246=ORIENTED_EDGE('',*,*,#190,.T.);
#247=ORIENTED_EDGE('',*,*,#191,.F.);
#248=ORIENTED_EDGE('',*,*,#190,.F.);
#249=ORIENTED_EDGE('',*,*,#172,.F.);
#250=ORIENTED_EDGE('',*,*,#192,.T.);
#251=ORIENTED_EDGE('',*,*,#193,.F.);
#252=ORIENTED_EDGE('',*,*,#192,.F.);
#253=ORIENTED_EDGE('',*,*,#160,.F.);
#254=ORIENTED_EDGE('',*,*,#167,.F.);
#255=ORIENTED_EDGE('',*,*,#178,.F.);
#256=ORIENTED_EDGE('',*,*,#194,.T.);
#257=ORIENTED_EDGE('',*,*,#176,.F.);
#258=ORIENTED_EDGE('',*,*,#195,.T.);
#259=ORIENTED_EDGE('',*,*,#183,.F.);
#260=ORIENTED_EDGE('',*,*,#163,.F.);
#261=ORIENTED_EDGE('',*,*,#157,.F.);
#262=ORIENTED_EDGE('',*,*,#194,.F.);
#263=ORIENTED_EDGE('',*,*,#177,.F.);
#264=ORIENTED_EDGE('',*,*,#181,.F.);
#265=ORIENTED_EDGE('',*,*,#182,.F.);
#266=ORIENTED_EDGE('',*,*,#195,.F.);
#267=ORIENTED_EDGE('',*,*,#175,.F.);
#268=ORIENTED_EDGE('',*,*,#173,.F.);
#269=ORIENTED_EDGE('',*,*,#185,.T.);
#270=ORIENTED_EDGE('',*,*,#187,.T.);
#271=ORIENTED_EDGE('',*,*,#189,.T.);
#272=ORIENTED_EDGE('',*,*,#191,.T.);
#273=ORIENTED_EDGE('',*,*,#193,.T.);
#274=CYLINDRICAL_SURFACE('',#321,3.);
#275=CYLINDRICAL_SURFACE('',#334,3.);
#276=CYLINDRICAL_SURFACE('',#336,3.);
#277=CYLINDRICAL_SURFACE('',#339,3.);
#278=CYLINDRICAL_SURFACE('',#341,7.);
#279=CYLINDRICAL_SURFACE('',#343,7.);
#280=CYLINDRICAL_SURFACE('',#345,7.);
#281=CYLINDRICAL_SURFACE('',#347,7.);
#282=CYLINDRICAL_SURFACE('',#349,7.);
#283=ADVANCED_FACE('',(#31),#274,.T.);
#284=ADVANCED_FACE('',(#32,#15,#16,#17,#18,#19),#25,.F.);
#285=ADVANCED_FACE('',(#33),#26,.T.);
#286=ADVANCED_FACE('',(#34),#275,.T.);
#287=ADVANCED_FACE('',(#35),#276,.T.);
#288=ADVANCED_FACE('',(#36),#27,.T.);
#289=ADVANCED_FACE('',(#37),#277,.T.);
#290=ADVANCED_FACE('',(#38),#278,.F.);
#291=ADVANCED_FACE('',(#39),#279,.F.);
#292=ADVANCED_FACE('',(#40),#280,.F.);
#293=ADVANCED_FACE('',(#41),#281,.F.);
#294=ADVANCED_FACE('',(#42),#282,.F.);
#295=ADVANCED_FACE('',(#43),#28,.T.);
#296=ADVANCED_FACE('',(#44),#29,.T.);
#297=ADVANCED_FACE('',(#45,#20,#21,#22,#23,#24),#30,.T.);
#298=CLOSED_SHELL('',(#283,#284,#285,#286,#287,#288,#289,#290,#291,#292,
#293,#294,#295,#296,#297));
#299=DERIVED_UNIT_ELEMENT(#302,1.);
#300=DERIVED_UNIT_ELEMENT(#529,-3.);
#301=DIMENSIONAL_EXPONENTS(0.,1.,0.,0.,0.,0.,0.);
#302=(
CONVERSION_BASED_UNIT('gram',#304)
MASS_UNIT()
NAMED_UNIT(#301)
);
#303=(
MASS_UNIT()
NAMED_UNIT(*)
SI_UNIT(.KILO.,.GRAM.)
);
#304=MASS_MEASURE_WITH_UNIT(MASS_MEASURE(0.001),#303);
#305=DERIVED_UNIT((#299,#300));
#306=MEASURE_REPRESENTATION_ITEM('density measure',
POSITIVE_RATIO_MEASURE(1.),#305);
#307=PROPERTY_DEFINITION_REPRESENTATION(#312,#309);
#308=PROPERTY_DEFINITION_REPRESENTATION(#313,#310);
#309=REPRESENTATION('material name',(#311),#526);
#310=REPRESENTATION('density',(#306),#526);
#311=DESCRIPTIVE_REPRESENTATION_ITEM('\X2\04220438043F043E0432044B0435\X0\',
'\X2\04220438043F043E0432044B0435\X0\');
#312=PROPERTY_DEFINITION('material property','material name',#536);
#313=PROPERTY_DEFINITION('material property','density of part',#536);
#314=DATE_TIME_ROLE('creation_date');
#315=APPLIED_DATE_AND_TIME_ASSIGNMENT(#316,#314,(#536));
#316=DATE_AND_TIME(#317,#318);
#317=CALENDAR_DATE(2019,28,6);
#318=LOCAL_TIME(0,0,0.,#319);
#319=COORDINATED_UNIVERSAL_TIME_OFFSET(0,0,.BEHIND.);
#320=AXIS2_PLACEMENT_3D('',#443,#354,#355);
#321=AXIS2_PLACEMENT_3D('',#444,#356,#357);
#322=AXIS2_PLACEMENT_3D('',#447,#358,#359);
#323=AXIS2_PLACEMENT_3D('',#451,#361,#362);
#324=AXIS2_PLACEMENT_3D('',#453,#364,#365);
#325=AXIS2_PLACEMENT_3D('',#457,#367,#368);
#326=AXIS2_PLACEMENT_3D('',#461,#370,#371);
#327=AXIS2_PLACEMENT_3D('',#465,#373,#374);
#328=AXIS2_PLACEMENT_3D('',#468,#376,#377);
#329=AXIS2_PLACEMENT_3D('',#470,#378,#379);
#330=AXIS2_PLACEMENT_3D('',#472,#380,#381);
#331=AXIS2_PLACEMENT_3D('',#474,#382,#383);
#332=AXIS2_PLACEMENT_3D('',#476,#384,#385);
#333=AXIS2_PLACEMENT_3D('',#477,#386,#387);
#334=AXIS2_PLACEMENT_3D('',#481,#390,#391);
#335=AXIS2_PLACEMENT_3D('',#483,#392,#393);
#336=AXIS2_PLACEMENT_3D('',#485,#395,#396);
#337=AXIS2_PLACEMENT_3D('',#488,#397,#398);
#338=AXIS2_PLACEMENT_3D('',#491,#401,#402);
#339=AXIS2_PLACEMENT_3D('',#495,#405,#406);
#340=AXIS2_PLACEMENT_3D('',#497,#407,#408);
#341=AXIS2_PLACEMENT_3D('',#499,#410,#411);
#342=AXIS2_PLACEMENT_3D('',#502,#413,#414);
#343=AXIS2_PLACEMENT_3D('',#503,#415,#416);
#344=AXIS2_PLACEMENT_3D('',#506,#418,#419);
#345=AXIS2_PLACEMENT_3D('',#507,#420,#421);
#346=AXIS2_PLACEMENT_3D('',#510,#423,#424);
#347=AXIS2_PLACEMENT_3D('',#511,#425,#426);
#348=AXIS2_PLACEMENT_3D('',#514,#428,#429);
#349=AXIS2_PLACEMENT_3D('',#515,#430,#431);
#350=AXIS2_PLACEMENT_3D('',#518,#433,#434);
#351=AXIS2_PLACEMENT_3D('',#519,#435,#436);
#352=AXIS2_PLACEMENT_3D('',#521,#438,#439);
#353=AXIS2_PLACEMENT_3D('',#523,#441,#442);
#354=DIRECTION('axis',(0.,0.,1.));
#355=DIRECTION('refdir',(1.,0.,0.));
#356=DIRECTION('center_axis',(0.,1.,0.));
#357=DIRECTION('ref_axis',(-0.707106781186542,0.,-0.707106781186553));
#358=DIRECTION('center_axis',(0.,-1.,0.));
#359=DIRECTION('ref_axis',(-0.707106781186542,0.,-0.707106781186553));
#360=DIRECTION('',(0.,-1.,0.));
#361=DIRECTION('center_axis',(0.,1.,0.));
#362=DIRECTION('ref_axis',(-0.707106781186542,0.,-0.707106781186553));
#363=DIRECTION('',(0.,1.,0.));
#364=DIRECTION('center_axis',(0.,1.,0.));
#365=DIRECTION('ref_axis',(0.,0.,1.));
#366=DIRECTION('',(1.,0.,0.));
#367=DIRECTION('center_axis',(0.,1.,0.));
#368=DIRECTION('ref_axis',(0.707106781186542,0.,-0.707106781186553));
#369=DIRECTION('',(0.,0.,1.));
#370=DIRECTION('center_axis',(0.,1.,0.));
#371=DIRECTION('ref_axis',(0.707106781186547,0.,0.707106781186548));
#372=DIRECTION('',(-1.,0.,0.));
#373=DIRECTION('center_axis',(0.,1.,0.));
#374=DIRECTION('ref_axis',(-0.707106781186547,0.,0.707106781186548));
#375=DIRECTION('',(0.,0.,-1.));
#376=DIRECTION('center_axis',(0.,1.,0.));
#377=DIRECTION('ref_axis',(1.,0.,0.));
#378=DIRECTION('center_axis',(0.,1.,0.));
#379=DIRECTION('ref_axis',(1.,0.,0.));
#380=DIRECTION('center_axis',(0.,1.,0.));
#381=DIRECTION('ref_axis',(1.,0.,0.));
#382=DIRECTION('center_axis',(0.,1.,0.));
#383=DIRECTION('ref_axis',(1.,0.,0.));
#384=DIRECTION('center_axis',(0.,1.,0.));
#385=DIRECTION('ref_axis',(1.,0.,0.));
#386=DIRECTION('center_axis',(0.,0.,-1.));
#387=DIRECTION('ref_axis',(-1.,0.,0.));
#388=DIRECTION('',(1.,0.,0.));
#389=DIRECTION('',(0.,1.,0.));
#390=DIRECTION('center_axis',(0.,1.,0.));
#391=DIRECTION('ref_axis',(0.707106781186542,0.,-0.707106781186553));
#392=DIRECTION('center_axis',(0.,-1.,0.));
#393=DIRECTION('ref_axis',(0.707106781186542,0.,-0.707106781186553));
#394=DIRECTION('',(0.,-1.,0.));
#395=DIRECTION('center_axis',(0.,1.,0.));
#396=DIRECTION('ref_axis',(-0.707106781186547,0.,0.707106781186548));
#397=DIRECTION('center_axis',(0.,-1.,0.));
#398=DIRECTION('ref_axis',(-0.707106781186547,0.,0.707106781186548));
#399=DIRECTION('',(0.,-1.,0.));
#400=DIRECTION('',(0.,1.,0.));
#401=DIRECTION('center_axis',(0.,0.,1.));
#402=DIRECTION('ref_axis',(1.,0.,0.));
#403=DIRECTION('',(0.,-1.,0.));
#404=DIRECTION('',(-1.,0.,0.));
#405=DIRECTION('center_axis',(0.,1.,0.));
#406=DIRECTION('ref_axis',(0.707106781186547,0.,0.707106781186548));
#407=DIRECTION('center_axis',(0.,-1.,0.));
#408=DIRECTION('ref_axis',(0.707106781186547,0.,0.707106781186548));
#409=DIRECTION('',(0.,1.,0.));
#410=DIRECTION('center_axis',(0.,1.,0.));
#411=DIRECTION('ref_axis',(1.,0.,0.));
#412=DIRECTION('',(0.,1.,0.));
#413=DIRECTION('center_axis',(0.,-1.,0.));
#414=DIRECTION('ref_axis',(1.,0.,0.));
#415=DIRECTION('center_axis',(0.,1.,0.));
#416=DIRECTION('ref_axis',(1.,0.,0.));
#417=DIRECTION('',(0.,1.,0.));
#418=DIRECTION('center_axis',(0.,-1.,0.));
#419=DIRECTION('ref_axis',(1.,0.,0.));
#420=DIRECTION('center_axis',(0.,1.,0.));
#421=DIRECTION('ref_axis',(1.,0.,0.));
#422=DIRECTION('',(0.,1.,0.));
#423=DIRECTION('center_axis',(0.,-1.,0.));
#424=DIRECTION('ref_axis',(1.,0.,0.));
#425=DIRECTION('center_axis',(0.,1.,0.));
#426=DIRECTION('ref_axis',(1.,0.,0.));
#427=DIRECTION('',(0.,1.,0.));
#428=DIRECTION('center_axis',(0.,-1.,0.));
#429=DIRECTION('ref_axis',(1.,0.,0.));
#430=DIRECTION('center_axis',(0.,1.,0.));
#431=DIRECTION('ref_axis',(1.,0.,0.));
#432=DIRECTION('',(0.,1.,0.));
#433=DIRECTION('center_axis',(0.,-1.,0.));
#434=DIRECTION('ref_axis',(1.,0.,0.));
#435=DIRECTION('center_axis',(-1.,0.,0.));
#436=DIRECTION('ref_axis',(0.,0.,1.));
#437=DIRECTION('',(0.,0.,-1.));
#438=DIRECTION('center_axis',(1.,0.,0.));
#439=DIRECTION('ref_axis',(0.,0.,-1.));
#440=DIRECTION('',(0.,0.,1.));
#441=DIRECTION('center_axis',(0.,1.,0.));
#442=DIRECTION('ref_axis',(0.,0.,1.));
#443=CARTESIAN_POINT('',(0.,0.,0.));
#444=CARTESIAN_POINT('Origin',(-37.,0.,-204.));
#445=CARTESIAN_POINT('',(-40.,4.,-204.));
#446=CARTESIAN_POINT('',(-37.,4.,-207.));
#447=CARTESIAN_POINT('Origin',(-37.,4.,-204.));
#448=CARTESIAN_POINT('',(-37.,0.,-207.));
#449=CARTESIAN_POINT('',(-37.,0.,-207.));
#450=CARTESIAN_POINT('',(-40.,0.,-204.));
#451=CARTESIAN_POINT('Origin',(-37.,0.,-204.));
#452=CARTESIAN_POINT('',(-40.,0.,-204.));
#453=CARTESIAN_POINT('Origin',(-20.,0.,-103.5));
#454=CARTESIAN_POINT('',(-3.,0.,-207.));
#455=CARTESIAN_POINT('',(-40.,0.,-207.));
#456=CARTESIAN_POINT('',(0.,0.,-204.));
#457=CARTESIAN_POINT('Origin',(-3.,0.,-204.));
#458=CARTESIAN_POINT('',(0.,0.,-3.00000000000001));
#459=CARTESIAN_POINT('',(0.,0.,-207.));
#460=CARTESIAN_POINT('',(-3.,0.,0.));
#461=CARTESIAN_POINT('Origin',(-3.,0.,-3.00000000000001));
#462=CARTESIAN_POINT('',(-37.,0.,0.));
#463=CARTESIAN_POINT('',(0.,0.,0.));
#464=CARTESIAN_POINT('',(-40.,0.,-3.));
#465=CARTESIAN_POINT('Origin',(-37.,0.,-3.));
#466=CARTESIAN_POINT('',(-40.,0.,0.));
#467=CARTESIAN_POINT('',(-27.,0.,-187.5));
#468=CARTESIAN_POINT('Origin',(-20.,0.,-187.5));
#469=CARTESIAN_POINT('',(-27.,0.,-145.5));
#470=CARTESIAN_POINT('Origin',(-20.,0.,-145.5));
#471=CARTESIAN_POINT('',(-27.,0.,-103.5));
#472=CARTESIAN_POINT('Origin',(-20.,0.,-103.5));
#473=CARTESIAN_POINT('',(-27.,0.,-61.5));
#474=CARTESIAN_POINT('Origin',(-20.,0.,-61.5));
#475=CARTESIAN_POINT('',(-27.,0.,-19.5));
#476=CARTESIAN_POINT('Origin',(-20.,0.,-19.5));
#477=CARTESIAN_POINT('Origin',(-40.,0.,-207.));
#478=CARTESIAN_POINT('',(-3.,4.,-207.));
#479=CARTESIAN_POINT('',(-40.,4.,-207.));
#480=CARTESIAN_POINT('',(-3.,0.,-207.));
#481=CARTESIAN_POINT('Origin',(-3.,0.,-204.));
#482=CARTESIAN_POINT('',(0.,4.,-204.));
#483=CARTESIAN_POINT('Origin',(-3.,4.,-204.));
#484=CARTESIAN_POINT('',(0.,0.,-204.));
#485=CARTESIAN_POINT('Origin',(-37.,0.,-3.));
#486=CARTESIAN_POINT('',(-37.,4.,0.));
#487=CARTESIAN_POINT('',(-40.,4.,-3.));
#488=CARTESIAN_POINT('Origin',(-37.,4.,-3.));
#489=CARTESIAN_POINT('',(-40.,0.,-3.));
#490=CARTESIAN_POINT('',(-37.,0.,0.));
#491=CARTESIAN_POINT('Origin',(0.,0.,0.));
#492=CARTESIAN_POINT('',(-3.,4.,0.));
#493=CARTESIAN_POINT('',(-3.,0.,0.));
#494=CARTESIAN_POINT('',(0.,4.,0.));
#495=CARTESIAN_POINT('Origin',(-3.,0.,-3.00000000000001));
#496=CARTESIAN_POINT('',(0.,4.,-3.00000000000001));
#497=CARTESIAN_POINT('Origin',(-3.,4.,-3.00000000000001));
#498=CARTESIAN_POINT('',(0.,0.,-3.00000000000001));
#499=CARTESIAN_POINT('Origin',(-20.,0.,-187.5));
#500=CARTESIAN_POINT('',(-27.,4.,-187.5));
#501=CARTESIAN_POINT('',(-27.,0.,-187.5));
#502=CARTESIAN_POINT('Origin',(-20.,4.,-187.5));
#503=CARTESIAN_POINT('Origin',(-20.,0.,-145.5));
#504=CARTESIAN_POINT('',(-27.,4.,-145.5));
#505=CARTESIAN_POINT('',(-27.,0.,-145.5));
#506=CARTESIAN_POINT('Origin',(-20.,4.,-145.5));
#507=CARTESIAN_POINT('Origin',(-20.,0.,-103.5));
#508=CARTESIAN_POINT('',(-27.,4.,-103.5));
#509=CARTESIAN_POINT('',(-27.,0.,-103.5));
#510=CARTESIAN_POINT('Origin',(-20.,4.,-103.5));
#511=CARTESIAN_POINT('Origin',(-20.,0.,-61.5));
#512=CARTESIAN_POINT('',(-27.,4.,-61.5));
#513=CARTESIAN_POINT('',(-27.,0.,-61.5));
#514=CARTESIAN_POINT('Origin',(-20.,4.,-61.5));
#515=CARTESIAN_POINT('Origin',(-20.,0.,-19.5));
#516=CARTESIAN_POINT('',(-27.,4.,-19.5));
#517=CARTESIAN_POINT('',(-27.,0.,-19.5));
#518=CARTESIAN_POINT('Origin',(-20.,4.,-19.5));
#519=CARTESIAN_POINT('Origin',(-40.,0.,0.));
#520=CARTESIAN_POINT('',(-40.,4.,0.));
#521=CARTESIAN_POINT('Origin',(0.,0.,-207.));
#522=CARTESIAN_POINT('',(0.,4.,-207.));
#523=CARTESIAN_POINT('Origin',(-20.,4.,-103.5));
#524=UNCERTAINTY_MEASURE_WITH_UNIT(LENGTH_MEASURE(0.01),#528,
'DISTANCE_ACCURACY_VALUE',
'Maximum model space distance between geometric entities at asserted c
onnectivities');
#525=UNCERTAINTY_MEASURE_WITH_UNIT(LENGTH_MEASURE(0.01),#528,
'DISTANCE_ACCURACY_VALUE',
'Maximum model space distance between geometric entities at asserted c
onnectivities');
#526=(
GEOMETRIC_REPRESENTATION_CONTEXT(3)
GLOBAL_UNCERTAINTY_ASSIGNED_CONTEXT((#524))
GLOBAL_UNIT_ASSIGNED_CONTEXT((#528,#530,#531))
REPRESENTATION_CONTEXT('','3D')
);
#527=(
GEOMETRIC_REPRESENTATION_CONTEXT(3)
GLOBAL_UNCERTAINTY_ASSIGNED_CONTEXT((#525))
GLOBAL_UNIT_ASSIGNED_CONTEXT((#528,#530,#531))
REPRESENTATION_CONTEXT('','3D')
);
#528=(
LENGTH_UNIT()
NAMED_UNIT(*)
SI_UNIT(.MILLI.,.METRE.)
);
#529=(
LENGTH_UNIT()
NAMED_UNIT(*)
SI_UNIT(.CENTI.,.METRE.)
);
#530=(
NAMED_UNIT(*)
PLANE_ANGLE_UNIT()
SI_UNIT($,.RADIAN.)
);
#531=(
NAMED_UNIT(*)
SI_UNIT($,.STERADIAN.)
SOLID_ANGLE_UNIT()
);
#532=SHAPE_DEFINITION_REPRESENTATION(#533,#534);
#533=PRODUCT_DEFINITION_SHAPE('',$,#536);
#534=SHAPE_REPRESENTATION('',(#320),#526);
#535=PRODUCT_DEFINITION_CONTEXT('part definition',#540,'design');
#536=PRODUCT_DEFINITION(
'\X2\041F043B0430044104420438043D0430\X0\ \X2\0441043E043504340438043D043804420435043B044C043D0430044F\X0\ 
\X2\0441\X0\ 5 \X2\043E0442043204350440044104420438044F043C0438\X0\ 20
8 \X2\043C043C\X0\, PSx5','308150 PSx5',#537,#535);
#537=PRODUCT_DEFINITION_FORMATION('',$,#542);
#538=PRODUCT_RELATED_PRODUCT_CATEGORY('308150 PSx5','308150 PSx5',(#542));
#539=APPLICATION_PROTOCOL_DEFINITION('international standard',
'automotive_design',2009,#540);
#540=APPLICATION_CONTEXT(
'Core Data for Automotive Mechanical Design Process');
#541=PRODUCT_CONTEXT('part definition',#540,'mechanical');
#542=PRODUCT(
'\X2\041F043B0430044104420438043D0430\X0\ \X2\0441043E043504340438043D043804420435043B044C043D0430044F\X0\ 
\X2\0441\X0\ 5 \X2\043E0442043204350440044104420438044F043C0438\X0\ 20
8 \X2\043C043C\X0\, PSx5','308150 PSx5',$,(#541));
#543=PRESENTATION_STYLE_ASSIGNMENT((#544));
#544=SURFACE_STYLE_USAGE(.BOTH.,#547);
#545=SURFACE_STYLE_RENDERING_WITH_PROPERTIES($,#551,(#546));
#546=SURFACE_STYLE_TRANSPARENT(0.);
#547=SURFACE_SIDE_STYLE('',(#548,#545));
#548=SURFACE_STYLE_FILL_AREA(#549);
#549=FILL_AREA_STYLE('',(#550));
#550=FILL_AREA_STYLE_COLOUR('',#551);
#551=COLOUR_RGB('',0.745098039215686,0.737254901960784,0.729411764705882);
ENDSEC;
END-ISO-10303-21;
