ISO-10303-21;
HEADER;
FILE_DESCRIPTION (( 'STEP AP203' ),
    '1' );
FILE_NAME ('Äåðæàòåëü êàáåëÿ TRC_37561.STEP',
    '2012-11-12T08:08:23',
    ( 'Àñååâ' ),
    ( '' ),
    'SwSTEP 2.0',
    'SolidWorks 2012',
    '' );
FILE_SCHEMA (( 'CONFIG_CONTROL_DESIGN' ));
ENDSEC;

DATA;
#1 = CALENDAR_DATE ( 2012, 12, 11 ) ;
#2 = PERSON_AND_ORGANIZATION ( #158, #208 ) ;
#3 = DATE_AND_TIME ( #1, #91 ) ;
#4 = PLANE ( 'NONE',  #198 ) ;
#5 = CARTESIAN_POINT ( 'NONE',  ( 34.25000000000000000, 1.084202172485504100E-014, 0.0000000000000000000 ) ) ;
#6 = DIRECTION ( 'NONE',  ( -0.0000000000000000000, -0.0000000000000000000, -1.000000000000000000 ) ) ;
#7 = DIRECTION ( 'NONE',  ( -0.0000000000000000000, 0.0000000000000000000, -1.000000000000000000 ) ) ;
#8 = PLANE ( 'NONE',  #196 ) ;
#9 = CARTESIAN_POINT ( 'NONE',  ( 34.25000000000000000, 1.084202172485504100E-014, 25.00000000000000000 ) ) ;
#10 = DIRECTION ( 'NONE',  ( 0.0000000000000000000, -1.000000000000000000, 0.0000000000000000000 ) ) ;
#11 = DIRECTION ( 'NONE',  ( -0.0000000000000000000, -0.0000000000000000000, -1.000000000000000000 ) ) ;
#12 = CARTESIAN_POINT ( 'NONE',  ( 0.0000000000000000000, 0.0000000000000000000, 0.0000000000000000000 ) ) ;
#13 = CARTESIAN_POINT ( 'NONE',  ( -34.25000000000000000, 1.084202172485504100E-014, 25.00000000000000000 ) ) ;
#14 = DIRECTION ( 'NONE',  ( 0.0000000000000000000, 1.000000000000000000, 0.0000000000000000000 ) ) ;
#15 = DIRECTION ( 'NONE',  ( -1.000000000000000000, -4.323246298870419200E-016, -0.0000000000000000000 ) ) ;
#16 = CARTESIAN_POINT ( 'NONE',  ( -34.25000000000000000, 1.500000000000010900, 25.00000000000000000 ) ) ;
#17 = DIRECTION ( 'NONE',  ( 0.0000000000000000000, 0.0000000000000000000, -1.000000000000000000 ) ) ;
#18 = DIRECTION ( 'NONE',  ( -1.000000000000000000, -0.0000000000000000000, 0.0000000000000000000 ) ) ;
#19 = DIRECTION ( 'NONE',  ( 1.000000000000000000, 0.0000000000000000000, -0.0000000000000000000 ) ) ;
#20 = DIRECTION ( 'NONE',  ( 0.0000000000000000000, -1.000000000000000000, 0.0000000000000000000 ) ) ;
#21 = CARTESIAN_POINT ( 'NONE',  ( 34.25000000000000000, 1.500000000000010900, 25.00000000000000000 ) ) ;
#22 = CARTESIAN_POINT ( 'NONE',  ( -34.25000000000000000, 1.084202172485504100E-014, 0.0000000000000000000 ) ) ;
#23 = CARTESIAN_POINT ( 'NONE',  ( 34.25000000000000000, 1.084202172485504100E-014, 25.00000000000000000 ) ) ;
#24 = CARTESIAN_POINT ( 'NONE',  ( -34.25000000000000000, 1.084202172485504100E-014, 25.00000000000000000 ) ) ;
#25 = DIRECTION ( 'NONE',  ( 0.0000000000000000000, 0.0000000000000000000, -1.000000000000000000 ) ) ;
#26 = DIRECTION ( 'NONE',  ( 1.000000000000000000, 0.0000000000000000000, 0.0000000000000000000 ) ) ;
#27 = DIRECTION ( 'NONE',  ( -1.000000000000000000, 4.323246298870419200E-016, 0.0000000000000000000 ) ) ;
#28 = PLANE ( 'NONE',  #180 ) ;
#29 = CARTESIAN_POINT ( 'NONE',  ( 0.0000000000000000000, 0.0000000000000000000, 0.0000000000000000000 ) ) ;
#30 =( LENGTH_UNIT ( ) NAMED_UNIT ( * ) SI_UNIT ( .MILLI., .METRE. ) );
#31 = PERSON_AND_ORGANIZATION_ROLE ( 'design_supplier' ) ;
#32 = CARTESIAN_POINT ( 'NONE',  ( 34.25000000000000000, 1.500000000000010900, 25.00000000000000000 ) ) ;
#33 = SECURITY_CLASSIFICATION_LEVEL ( 'unclassified' ) ;
#34 = DIRECTION ( 'NONE',  ( 1.000000000000000000, 4.323246298870419700E-016, 0.0000000000000000000 ) ) ;
#35 = CARTESIAN_POINT ( 'NONE',  ( 34.25000000000000000, 1.500000000000010900, 0.0000000000000000000 ) ) ;
#36 = CARTESIAN_POINT ( 'NONE',  ( 34.25000000000000000, 1.500000000000010900, 25.00000000000000000 ) ) ;
#37 = DIRECTION ( 'NONE',  ( -0.0000000000000000000, -0.0000000000000000000, -1.000000000000000000 ) ) ;
#38 = PLANE ( 'NONE',  #179 ) ;
#39 = CARTESIAN_POINT ( 'NONE',  ( 9.171572875253829700, 0.0000000000000000000, 0.0000000000000000000 ) ) ;
#40 = MECHANICAL_CONTEXT ( 'NONE', #61, 'mechanical' ) ;
#41 = APPLICATION_PROTOCOL_DEFINITION ( 'international standard', 'config_control_design', 1994, #61 ) ;
#42 = APPROVAL_ROLE ( '' ) ;
#43 = DIRECTION ( 'NONE',  ( -1.000000000000000000, 0.0000000000000000000, -0.0000000000000000000 ) ) ;
#44 = DIRECTION ( 'NONE',  ( -1.000000000000000000, 0.0000000000000000000, -0.0000000000000000000 ) ) ;
#45 = PERSON_AND_ORGANIZATION_ROLE ( 'creator' ) ;
#46 = CARTESIAN_POINT ( 'NONE',  ( -9.171572875253829700, 1.500000000000000000, 25.00000000000000000 ) ) ;
#47 = DIRECTION ( 'NONE',  ( 0.0000000000000000000, 1.000000000000000000, 0.0000000000000000000 ) ) ;
#48 = APPROVAL_ROLE ( '' ) ;
#49 = DIRECTION ( 'NONE',  ( 4.323246298870419700E-016, -1.000000000000000000, 0.0000000000000000000 ) ) ;
#50 = CARTESIAN_POINT ( 'NONE',  ( -34.25000000000000000, 1.500000000000010900, 0.0000000000000000000 ) ) ;
#51 = CARTESIAN_POINT ( 'NONE',  ( 34.25000000000000000, 1.500000000000010900, 25.00000000000000000 ) ) ;
#52 = PLANE ( 'NONE',  #182 ) ;
#53 = DIRECTION ( 'NONE',  ( -1.000000000000000000, 0.0000000000000000000, 0.0000000000000000000 ) ) ;
#54 =( NAMED_UNIT ( * ) SI_UNIT ( $, .STERADIAN. ) SOLID_ANGLE_UNIT ( ) );
#55 = APPROVAL_STATUS ( 'not_yet_approved' ) ;
#56 = CARTESIAN_POINT ( 'NONE',  ( -9.171572875253829700, 1.500000000000000000, 0.0000000000000000000 ) ) ;
#57 = DIRECTION ( 'NONE',  ( 0.0000000000000000000, -1.000000000000000000, 0.0000000000000000000 ) ) ;
#58 = DATE_TIME_ROLE ( 'creation_date' ) ;
#59 = CARTESIAN_POINT ( 'NONE',  ( -34.25000000000000000, 1.084202172485504100E-014, 25.00000000000000000 ) ) ;
#60 = CARTESIAN_POINT ( 'NONE',  ( -9.171572875253829700, 0.0000000000000000000, 25.00000000000000000 ) ) ;
#61 = APPLICATION_CONTEXT ( 'configuration controlled 3d designs of mechanical parts and assemblies' ) ;
#62 = DATE_TIME_ROLE ( 'classification_date' ) ;
#63 = DIRECTION ( 'NONE',  ( -1.000000000000000000, 4.323246298870419200E-016, 0.0000000000000000000 ) ) ;
#64 = CARTESIAN_POINT ( 'NONE',  ( -34.25000000000000000, 1.084202172485504100E-014, 0.0000000000000000000 ) ) ;
#65 = PERSON_AND_ORGANIZATION_ROLE ( 'creator' ) ;
#66 = PERSON_AND_ORGANIZATION_ROLE ( 'classification_officer' ) ;
#67 = DIRECTION ( 'NONE',  ( 0.0000000000000000000, 0.0000000000000000000, 1.000000000000000000 ) ) ;
#68 = PERSON_AND_ORGANIZATION_ROLE ( 'design_owner' ) ;
#69 = APPLICATION_CONTEXT ( 'configuration controlled 3d designs of mechanical parts and assemblies' ) ;
#70 = CARTESIAN_POINT ( 'NONE',  ( 0.0000000000000000000, 0.0000000000000000000, 25.00000000000000000 ) ) ;
#71 = APPLICATION_PROTOCOL_DEFINITION ( 'international standard', 'config_control_design', 1994, #69 ) ;
#72 = CARTESIAN_POINT ( 'NONE',  ( -34.25000000000000000, 1.500000000000010900, 25.00000000000000000 ) ) ;
#73 = APPROVAL_STATUS ( 'not_yet_approved' ) ;
#74 = DIRECTION ( 'NONE',  ( 0.0000000000000000000, 0.0000000000000000000, 1.000000000000000000 ) ) ;
#75 = APPROVAL_ROLE ( '' ) ;
#76 = CARTESIAN_POINT ( 'NONE',  ( -34.25000000000000000, 1.084202172485504100E-014, 25.00000000000000000 ) ) ;
#77 = APPROVAL_STATUS ( 'not_yet_approved' ) ;
#78 = DIRECTION ( 'NONE',  ( -0.0000000000000000000, -0.0000000000000000000, -1.000000000000000000 ) ) ;
#79 = CARTESIAN_POINT ( 'NONE',  ( -9.171572875253829700, 1.500000000000000000, 25.00000000000000000 ) ) ;
#80 =( NAMED_UNIT ( * ) PLANE_ANGLE_UNIT ( ) SI_UNIT ( $, .RADIAN. ) );
#81 = CARTESIAN_POINT ( 'NONE',  ( 34.25000000000000000, 1.500000000000010900, 0.0000000000000000000 ) ) ;
#82 = CARTESIAN_POINT ( 'NONE',  ( 9.171572875253829700, 0.0000000000000000000, 25.00000000000000000 ) ) ;
#83 = DIRECTION ( 'NONE',  ( 0.0000000000000000000, 0.0000000000000000000, -1.000000000000000000 ) ) ;
#84 = PLANE ( 'NONE',  #186 ) ;
#85 = MANIFOLD_SOLID_BREP ( 'Âûòÿíóòü-Òîíêîñòåííûé1', #136 ) ;
#86 = ADVANCED_BREP_SHAPE_REPRESENTATION ( '-õ¨öðªõû¹ úðñõû  TRC_37561', ( #85, #194 ), #191 ) ;
#87 = UNCERTAINTY_MEASURE_WITH_UNIT (LENGTH_MEASURE( 1.000000000000000100E-005 ), #30, 'distance_accuracy_value', 'NONE');
#88 = PRODUCT_DEFINITION_SHAPE ( 'NONE', 'NONE',  #193 ) ;
#89 = DESIGN_CONTEXT ( 'detailed design', #69, 'design' ) ;
#90 = PERSON_AND_ORGANIZATION ( #158, #208 ) ;
#91 = LOCAL_TIME ( 12, 8, 23.00000000000000000, #95 ) ;
#92 = DATE_AND_TIME ( #94, #207 ) ;
#93 = APPROVAL_DATE_TIME ( #92, #197 ) ;
#94 = CALENDAR_DATE ( 2012, 12, 11 ) ;
#95 = COORDINATED_UNIVERSAL_TIME_OFFSET ( 4, 0, .AHEAD. ) ;
#96 = CALENDAR_DATE ( 2012, 12, 11 ) ;
#97 = DATE_AND_TIME ( #96, #228 ) ;
#98 = PERSON_AND_ORGANIZATION ( #158, #208 ) ;
#99 = APPROVAL_PERSON_ORGANIZATION ( #98, #218, #48 ) ;
#100 = COORDINATED_UNIVERSAL_TIME_OFFSET ( 4, 0, .AHEAD. ) ;
#101 = LOCAL_TIME ( 12, 8, 23.00000000000000000, #100 ) ;
#102 = CALENDAR_DATE ( 2012, 12, 11 ) ;
#103 = DATE_AND_TIME ( #102, #101 ) ;
#104 = APPROVAL_DATE_TIME ( #103, #218 ) ;
#105 = LINE ( 'NONE', #21, #118 ) ;
#106 = PERSON_AND_ORGANIZATION ( #158, #208 ) ;
#107 = FACE_OUTER_BOUND ( 'NONE', #174, .T. ) ;
#108 = LINE ( 'NONE', #81, #116 ) ;
#109 = LINE ( 'NONE', #9, #120 ) ;
#110 = LINE ( 'NONE', #51, #112 ) ;
#111 = VECTOR ( 'NONE', #18, 1000.000000000000000 ) ;
#112 = VECTOR ( 'NONE', #6, 1000.000000000000000 ) ;
#113 = VECTOR ( 'NONE', #63, 1000.000000000000000 ) ;
#114 = LINE ( 'NONE', #79, #113 ) ;
#115 = COORDINATED_UNIVERSAL_TIME_OFFSET ( 4, 0, .AHEAD. ) ;
#116 = VECTOR ( 'NONE', #20, 1000.000000000000000 ) ;
#117 = LINE ( 'NONE', #56, #111 ) ;
#118 = VECTOR ( 'NONE', #10, 1000.000000000000000 ) ;
#119 = LINE ( 'NONE', #72, #144 ) ;
#120 = VECTOR ( 'NONE', #11, 1000.000000000000000 ) ;
#121 = ORIENTED_EDGE ( 'NONE', *, *, #203, .F. ) ;
#122 = ORIENTED_EDGE ( 'NONE', *, *, #187, .F. ) ;
#123 = ORIENTED_EDGE ( 'NONE', *, *, #187, .T. ) ;
#124 = ORIENTED_EDGE ( 'NONE', *, *, #199, .F. ) ;
#125 = ORIENTED_EDGE ( 'NONE', *, *, #181, .T. ) ;
#126 = ORIENTED_EDGE ( 'NONE', *, *, #189, .F. ) ;
#127 = ORIENTED_EDGE ( 'NONE', *, *, #188, .T. ) ;
#128 = ORIENTED_EDGE ( 'NONE', *, *, #190, .F. ) ;
#129 = ORIENTED_EDGE ( 'NONE', *, *, #192, .T. ) ;
#130 = ORIENTED_EDGE ( 'NONE', *, *, #190, .T. ) ;
#131 = ORIENTED_EDGE ( 'NONE', *, *, #195, .F. ) ;
#132 = ORIENTED_EDGE ( 'NONE', *, *, #177, .T. ) ;
#133 = ORIENTED_EDGE ( 'NONE', *, *, #177, .F. ) ;
#134 = ORIENTED_EDGE ( 'NONE', *, *, #189, .T. ) ;
#135 = ORIENTED_EDGE ( 'NONE', *, *, #203, .T. ) ;
#136 = CLOSED_SHELL ( 'NONE', ( #155, #151, #154, #156, #152, #153 ) ) ;
#137 = LINE ( 'NONE', #60, #145 ) ;
#138 = LINE ( 'NONE', #64, #140 ) ;
#139 = VECTOR ( 'NONE', #78, 1000.000000000000000 ) ;
#140 = VECTOR ( 'NONE', #14, 1000.000000000000000 ) ;
#141 = VECTOR ( 'NONE', #47, 1000.000000000000000 ) ;
#142 = VECTOR ( 'NONE', #15, 1000.000000000000000 ) ;
#143 = LINE ( 'NONE', #39, #142 ) ;
#144 = VECTOR ( 'NONE', #37, 1000.000000000000000 ) ;
#145 = VECTOR ( 'NONE', #27, 1000.000000000000000 ) ;
#146 = LINE ( 'NONE', #59, #139 ) ;
#147 = LINE ( 'NONE', #13, #141 ) ;
#148 = COORDINATED_UNIVERSAL_TIME_OFFSET ( 4, 0, .AHEAD. ) ;
#149 = LOCAL_TIME ( 12, 8, 23.00000000000000000, #148 ) ;
#150 = APPROVAL_PERSON_ORGANIZATION ( #2, #220, #75 ) ;
#151 = ADVANCED_FACE ( 'NONE', ( #175 ), #28, .T. ) ;
#152 = ADVANCED_FACE ( 'NONE', ( #234 ), #8, .F. ) ;
#153 = ADVANCED_FACE ( 'NONE', ( #225 ), #4, .T. ) ;
#154 = ADVANCED_FACE ( 'NONE', ( #231 ), #38, .T. ) ;
#155 = ADVANCED_FACE ( 'NONE', ( #224 ), #84, .T. ) ;
#156 = ADVANCED_FACE ( 'NONE', ( #107 ), #52, .F. ) ;
#157 = PRODUCT ( 'Äåðæàòåëü êàáåëÿ TRC_37561', 'Äåðæàòåëü êàáåëÿ TRC_37561', '', ( #40 ) ) ;
#158 = PERSON ( 'UNSPECIFIED', 'UNSPECIFIED', 'UNSPECIFIED', ('UNSPECIFIED'), ('UNSPECIFIED'), ('UNSPECIFIED') ) ;
#159 = DATE_AND_TIME ( #161, #149 ) ;
#160 = APPROVAL_DATE_TIME ( #159, #220 ) ;
#161 = CALENDAR_DATE ( 2012, 12, 11 ) ;
#162 = PERSON_AND_ORGANIZATION ( #158, #208 ) ;
#163 = PERSON_AND_ORGANIZATION ( #158, #208 ) ;
#164 = EDGE_LOOP ( 'NONE', ( #121, #133, #165, #170 ) ) ;
#165 = ORIENTED_EDGE ( 'NONE', *, *, #195, .T. ) ;
#166 = ORIENTED_EDGE ( 'NONE', *, *, #188, .F. ) ;
#167 = ORIENTED_EDGE ( 'NONE', *, *, #192, .F. ) ;
#168 = VERTEX_POINT ( 'NONE', #76 ) ;
#169 = ORIENTED_EDGE ( 'NONE', *, *, #202, .T. ) ;
#170 = ORIENTED_EDGE ( 'NONE', *, *, #199, .T. ) ;
#171 = EDGE_LOOP ( 'NONE', ( #126, #166, #130, #132 ) ) ;
#172 = EDGE_LOOP ( 'NONE', ( #123, #233, #131, #128 ) ) ;
#173 = EDGE_LOOP ( 'NONE', ( #236, #235, #134, #135 ) ) ;
#174 = EDGE_LOOP ( 'NONE', ( #125, #167, #122, #127 ) ) ;
#175 = FACE_OUTER_BOUND ( 'NONE', #164, .T. ) ;
#176 = EDGE_LOOP ( 'NONE', ( #229, #124, #169, #129 ) ) ;
#177 = EDGE_CURVE ( 'NONE', #227, #222, #109, .T. ) ;
#178 = CC_DESIGN_DATE_AND_TIME_ASSIGNMENT ( #3, #58, ( #193 ) ) ;
#179 = AXIS2_PLACEMENT_3D ( 'NONE', #36, #19, #7 ) ;
#180 = AXIS2_PLACEMENT_3D ( 'NONE', #82, #49, #34 ) ;
#181 = EDGE_CURVE ( 'NONE', #232, #230, #117, .T. ) ;
#182 = AXIS2_PLACEMENT_3D ( 'NONE', #46, #57, #25 ) ;
#183 = PRODUCT_DEFINITION_FORMATION_WITH_SPECIFIED_SOURCE ( 'ANY', '', #157, .NOT_KNOWN. ) ;
#184 = CC_DESIGN_APPROVAL ( #197, ( #193 ) ) ;
#185 = CC_DESIGN_PERSON_AND_ORGANIZATION_ASSIGNMENT ( #205, #68, ( #157 ) ) ;
#186 = AXIS2_PLACEMENT_3D ( 'NONE', #24, #53, #74 ) ;
#187 = EDGE_CURVE ( 'NONE', #226, #223, #114, .T. ) ;
#188 = EDGE_CURVE ( 'NONE', #226, #232, #110, .T. ) ;
#189 = EDGE_CURVE ( 'NONE', #232, #222, #108, .T. ) ;
#190 = EDGE_CURVE ( 'NONE', #226, #227, #105, .T. ) ;
#191 =( GEOMETRIC_REPRESENTATION_CONTEXT ( 3 ) GLOBAL_UNCERTAINTY_ASSIGNED_CONTEXT ( ( #87 ) ) GLOBAL_UNIT_ASSIGNED_CONTEXT ( ( #30, #80, #54 ) ) REPRESENTATION_CONTEXT ( 'NONE', 'WORKASPACE' ) );
#192 = EDGE_CURVE ( 'NONE', #223, #230, #119, .T. ) ;
#193 = PRODUCT_DEFINITION ( 'UNKNOWN', '', #183, #89 ) ;
#194 = AXIS2_PLACEMENT_3D ( 'NONE', #29, #67, #26 ) ;
#195 = EDGE_CURVE ( 'NONE', #227, #168, #137, .T. ) ;
#196 = AXIS2_PLACEMENT_3D ( 'NONE', #70, #17, #44 ) ;
#197 = APPROVAL ( #55, 'UNSPECIFIED' ) ;
#198 = AXIS2_PLACEMENT_3D ( 'NONE', #12, #83, #43 ) ;
#199 = EDGE_CURVE ( 'NONE', #168, #237, #146, .T. ) ;
#200 = CC_DESIGN_PERSON_AND_ORGANIZATION_ASSIGNMENT ( #90, #65, ( #193 ) ) ;
#201 = EDGE_CURVE ( 'NONE', #237, #230, #138, .T. ) ;
#202 = EDGE_CURVE ( 'NONE', #168, #223, #147, .T. ) ;
#203 = EDGE_CURVE ( 'NONE', #222, #237, #143, .T. ) ;
#204 = APPROVAL_PERSON_ORGANIZATION ( #209, #197, #42 ) ;
#205 = PERSON_AND_ORGANIZATION ( #158, #208 ) ;
#206 = COORDINATED_UNIVERSAL_TIME_OFFSET ( 4, 0, .AHEAD. ) ;
#207 = LOCAL_TIME ( 12, 8, 23.00000000000000000, #206 ) ;
#208 = ORGANIZATION ( 'UNSPECIFIED', 'UNSPECIFIED', '' ) ;
#209 = PERSON_AND_ORGANIZATION ( #158, #208 ) ;
#210 = SHAPE_DEFINITION_REPRESENTATION ( #88, #86 ) ;
#211 = CC_DESIGN_APPROVAL ( #218, ( #214 ) ) ;
#212 = PRODUCT_RELATED_PRODUCT_CATEGORY ( 'detail', '', ( #157 ) ) ;
#213 = CC_DESIGN_PERSON_AND_ORGANIZATION_ASSIGNMENT ( #106, #66, ( #214 ) ) ;
#214 = SECURITY_CLASSIFICATION ( '', '', #33 ) ;
#215 = CC_DESIGN_PERSON_AND_ORGANIZATION_ASSIGNMENT ( #163, #31, ( #183 ) ) ;
#216 = CC_DESIGN_APPROVAL ( #220, ( #183 ) ) ;
#217 = CC_DESIGN_PERSON_AND_ORGANIZATION_ASSIGNMENT ( #162, #45, ( #183 ) ) ;
#218 = APPROVAL ( #73, 'UNSPECIFIED' ) ;
#219 = CC_DESIGN_SECURITY_CLASSIFICATION ( #214, ( #183 ) ) ;
#220 = APPROVAL ( #77, 'UNSPECIFIED' ) ;
#221 = CC_DESIGN_DATE_AND_TIME_ASSIGNMENT ( #97, #62, ( #214 ) ) ;
#222 = VERTEX_POINT ( 'NONE', #5 ) ;
#223 = VERTEX_POINT ( 'NONE', #16 ) ;
#224 = FACE_OUTER_BOUND ( 'NONE', #176, .T. ) ;
#225 = FACE_OUTER_BOUND ( 'NONE', #173, .T. ) ;
#226 = VERTEX_POINT ( 'NONE', #32 ) ;
#227 = VERTEX_POINT ( 'NONE', #23 ) ;
#228 = LOCAL_TIME ( 12, 8, 23.00000000000000000, #115 ) ;
#229 = ORIENTED_EDGE ( 'NONE', *, *, #201, .F. ) ;
#230 = VERTEX_POINT ( 'NONE', #50 ) ;
#231 = FACE_OUTER_BOUND ( 'NONE', #171, .T. ) ;
#232 = VERTEX_POINT ( 'NONE', #35 ) ;
#233 = ORIENTED_EDGE ( 'NONE', *, *, #202, .F. ) ;
#234 = FACE_OUTER_BOUND ( 'NONE', #172, .T. ) ;
#235 = ORIENTED_EDGE ( 'NONE', *, *, #181, .F. ) ;
#236 = ORIENTED_EDGE ( 'NONE', *, *, #201, .T. ) ;
#237 = VERTEX_POINT ( 'NONE', #22 ) ;
ENDSEC;
END-ISO-10303-21;
