ISO-10303-21;
HEADER;
FILE_DESCRIPTION (( 'STEP AP203' ),
    '1' );
FILE_NAME ('Äåðæàòåëü êàáåëÿ TRC_37562.STEP',
    '2012-11-12T08:08:23',
    ( 'Àñååâ' ),
    ( '' ),
    'SwSTEP 2.0',
    'SolidWorks 2012',
    '' );
FILE_SCHEMA (( 'CONFIG_CONTROL_DESIGN' ));
ENDSEC;

DATA;
#1 = DIRECTION ( 'NONE',  ( -0.0000000000000000000, 0.0000000000000000000, -1.000000000000000000 ) ) ;
#2 = PLANE ( 'NONE',  #208 ) ;
#3 = CARTESIAN_POINT ( 'NONE',  ( 49.25000000000000000, 1.499999999999995300, 25.00000000000000000 ) ) ;
#4 = DIRECTION ( 'NONE',  ( -0.0000000000000000000, -0.0000000000000000000, -1.000000000000000000 ) ) ;
#5 = CARTESIAN_POINT ( 'NONE',  ( -49.25000000000000000, -4.770489558936219500E-015, 25.00000000000000000 ) ) ;
#6 = CARTESIAN_POINT ( 'NONE',  ( 49.25000000000000000, 1.499999999999995300, 25.00000000000000000 ) ) ;
#7 = CARTESIAN_POINT ( 'NONE',  ( -49.25000000000000000, 1.499999999999995300, 0.0000000000000000000 ) ) ;
#8 = DIRECTION ( 'NONE',  ( 0.0000000000000000000, 0.0000000000000000000, -1.000000000000000000 ) ) ;
#9 = PLANE ( 'NONE',  #214 ) ;
#10 = DIRECTION ( 'NONE',  ( 0.0000000000000000000, -1.000000000000000000, 0.0000000000000000000 ) ) ;
#11 = PLANE ( 'NONE',  #206 ) ;
#12 = DIRECTION ( 'NONE',  ( -1.000000000000000000, 0.0000000000000000000, 0.0000000000000000000 ) ) ;
#13 = DIRECTION ( 'NONE',  ( -0.0000000000000000000, -0.0000000000000000000, -1.000000000000000000 ) ) ;
#14 = CARTESIAN_POINT ( 'NONE',  ( 24.17157287525386200, 0.0000000000000000000, 25.00000000000000000 ) ) ;
#15 = DIRECTION ( 'NONE',  ( -1.000000000000000000, 0.0000000000000000000, 0.0000000000000000000 ) ) ;
#16 = DIRECTION ( 'NONE',  ( 1.000000000000000000, -1.902228371502987700E-016, 0.0000000000000000000 ) ) ;
#17 = DIRECTION ( 'NONE',  ( 0.0000000000000000000, 0.0000000000000000000, 1.000000000000000000 ) ) ;
#18 = CARTESIAN_POINT ( 'NONE',  ( 49.25000000000000000, -4.770489558936219500E-015, 25.00000000000000000 ) ) ;
#19 = CARTESIAN_POINT ( 'NONE',  ( -49.25000000000000000, -4.770489558936219500E-015, 0.0000000000000000000 ) ) ;
#20 = DIRECTION ( 'NONE',  ( -1.902228371502987700E-016, -1.000000000000000000, 0.0000000000000000000 ) ) ;
#21 = DIRECTION ( 'NONE',  ( 1.000000000000000000, 0.0000000000000000000, -0.0000000000000000000 ) ) ;
#22 = PLANE ( 'NONE',  #235 ) ;
#23 = CARTESIAN_POINT ( 'NONE',  ( -24.17157287525386200, 1.500000000000000000, 25.00000000000000000 ) ) ;
#24 = CARTESIAN_POINT ( 'NONE',  ( 49.25000000000000000, -4.770489558936219500E-015, 25.00000000000000000 ) ) ;
#25 = CARTESIAN_POINT ( 'NONE',  ( -49.25000000000000000, -4.770489558936219500E-015, 25.00000000000000000 ) ) ;
#26 = CARTESIAN_POINT ( 'NONE',  ( 49.25000000000000000, -4.770489558936219500E-015, 0.0000000000000000000 ) ) ;
#27 = CARTESIAN_POINT ( 'NONE',  ( 49.25000000000000000, 1.499999999999995300, 0.0000000000000000000 ) ) ;
#28 = DIRECTION ( 'NONE',  ( 0.0000000000000000000, 0.0000000000000000000, -1.000000000000000000 ) ) ;
#29 = CARTESIAN_POINT ( 'NONE',  ( 0.0000000000000000000, 0.0000000000000000000, 25.00000000000000000 ) ) ;
#30 = CARTESIAN_POINT ( 'NONE',  ( 0.0000000000000000000, 0.0000000000000000000, 0.0000000000000000000 ) ) ;
#31 = CARTESIAN_POINT ( 'NONE',  ( 49.25000000000000000, 1.499999999999995300, 25.00000000000000000 ) ) ;
#32 = CARTESIAN_POINT ( 'NONE',  ( -49.25000000000000000, 1.499999999999995300, 25.00000000000000000 ) ) ;
#33 = DIRECTION ( 'NONE',  ( 0.0000000000000000000, 0.0000000000000000000, -1.000000000000000000 ) ) ;
#34 = DIRECTION ( 'NONE',  ( -1.000000000000000000, 0.0000000000000000000, 0.0000000000000000000 ) ) ;
#35 = PLANE ( 'NONE',  #227 ) ;
#36 = CARTESIAN_POINT ( 'NONE',  ( 49.25000000000000000, 1.499999999999995300, 25.00000000000000000 ) ) ;
#37 = CARTESIAN_POINT ( 'NONE',  ( -24.17157287525386200, 1.500000000000000000, 25.00000000000000000 ) ) ;
#38 = PLANE ( 'NONE',  #226 ) ;
#39 = ADVANCED_BREP_SHAPE_REPRESENTATION ( '-õ¨öðªõû¹ úðñõû  TRC_37562', ( #40, #201 ), #216 ) ;
#40 = MANIFOLD_SOLID_BREP ( 'Âûòÿíóòü-Òîíêîñòåííûé1', #98 ) ;
#41 = UNCERTAINTY_MEASURE_WITH_UNIT (LENGTH_MEASURE( 1.000000000000000100E-005 ), #85, 'distance_accuracy_value', 'NONE');
#42 = DESIGN_CONTEXT ( 'detailed design', #51, 'design' ) ;
#43 = PRODUCT_DEFINITION_SHAPE ( 'NONE', 'NONE',  #210 ) ;
#44 = DIRECTION ( 'NONE',  ( -1.000000000000000000, -1.902228371502987400E-016, 0.0000000000000000000 ) ) ;
#45 = APPROVAL_STATUS ( 'not_yet_approved' ) ;
#46 = PERSON_AND_ORGANIZATION_ROLE ( 'classification_officer' ) ;
#47 = SECURITY_CLASSIFICATION_LEVEL ( 'unclassified' ) ;
#48 = DIRECTION ( 'NONE',  ( 0.0000000000000000000, -1.000000000000000000, 0.0000000000000000000 ) ) ;
#49 = DIRECTION ( 'NONE',  ( 0.0000000000000000000, 1.000000000000000000, 0.0000000000000000000 ) ) ;
#50 =( NAMED_UNIT ( * ) PLANE_ANGLE_UNIT ( ) SI_UNIT ( $, .RADIAN. ) );
#51 = APPLICATION_CONTEXT ( 'configuration controlled 3d designs of mechanical parts and assemblies' ) ;
#52 = CARTESIAN_POINT ( 'NONE',  ( 0.0000000000000000000, 0.0000000000000000000, 0.0000000000000000000 ) ) ;
#53 = DIRECTION ( 'NONE',  ( -0.0000000000000000000, -0.0000000000000000000, -1.000000000000000000 ) ) ;
#54 =( NAMED_UNIT ( * ) SI_UNIT ( $, .STERADIAN. ) SOLID_ANGLE_UNIT ( ) );
#55 = PERSON_AND_ORGANIZATION_ROLE ( 'design_supplier' ) ;
#56 = PERSON_AND_ORGANIZATION_ROLE ( 'design_owner' ) ;
#57 = MECHANICAL_CONTEXT ( 'NONE', #76, 'mechanical' ) ;
#58 = DIRECTION ( 'NONE',  ( 0.0000000000000000000, 0.0000000000000000000, 1.000000000000000000 ) ) ;
#59 = PERSON_AND_ORGANIZATION_ROLE ( 'creator' ) ;
#60 = DATE_TIME_ROLE ( 'creation_date' ) ;
#61 = APPROVAL_STATUS ( 'not_yet_approved' ) ;
#62 = APPLICATION_PROTOCOL_DEFINITION ( 'international standard', 'config_control_design', 1994, #51 ) ;
#63 = APPROVAL_ROLE ( '' ) ;
#64 = DIRECTION ( 'NONE',  ( -0.0000000000000000000, -0.0000000000000000000, -1.000000000000000000 ) ) ;
#65 = CARTESIAN_POINT ( 'NONE',  ( -49.25000000000000000, -4.770489558936219500E-015, 25.00000000000000000 ) ) ;
#66 = DIRECTION ( 'NONE',  ( -1.000000000000000000, 1.902228371502987400E-016, -0.0000000000000000000 ) ) ;
#67 = CARTESIAN_POINT ( 'NONE',  ( 49.25000000000000000, 1.499999999999995300, 0.0000000000000000000 ) ) ;
#68 = DIRECTION ( 'NONE',  ( 0.0000000000000000000, -1.000000000000000000, 0.0000000000000000000 ) ) ;
#69 = CARTESIAN_POINT ( 'NONE',  ( 24.17157287525386200, 0.0000000000000000000, 0.0000000000000000000 ) ) ;
#70 = CARTESIAN_POINT ( 'NONE',  ( -49.25000000000000000, -4.770489558936219500E-015, 0.0000000000000000000 ) ) ;
#71 = DIRECTION ( 'NONE',  ( 0.0000000000000000000, 1.000000000000000000, 0.0000000000000000000 ) ) ;
#72 = APPROVAL_ROLE ( '' ) ;
#73 = APPROVAL_STATUS ( 'not_yet_approved' ) ;
#74 = DATE_TIME_ROLE ( 'classification_date' ) ;
#75 = DIRECTION ( 'NONE',  ( -1.000000000000000000, -1.902228371502987400E-016, 0.0000000000000000000 ) ) ;
#76 = APPLICATION_CONTEXT ( 'configuration controlled 3d designs of mechanical parts and assemblies' ) ;
#77 = DIRECTION ( 'NONE',  ( 1.000000000000000000, 0.0000000000000000000, 0.0000000000000000000 ) ) ;
#78 = APPLICATION_PROTOCOL_DEFINITION ( 'international standard', 'config_control_design', 1994, #76 ) ;
#79 = PERSON_AND_ORGANIZATION_ROLE ( 'creator' ) ;
#80 = APPROVAL_ROLE ( '' ) ;
#81 = DIRECTION ( 'NONE',  ( -1.000000000000000000, -0.0000000000000000000, 0.0000000000000000000 ) ) ;
#82 = CARTESIAN_POINT ( 'NONE',  ( -24.17157287525386200, 0.0000000000000000000, 25.00000000000000000 ) ) ;
#83 = CARTESIAN_POINT ( 'NONE',  ( -24.17157287525386200, 1.500000000000000000, 0.0000000000000000000 ) ) ;
#84 = CARTESIAN_POINT ( 'NONE',  ( -49.25000000000000000, -4.770489558936219500E-015, 25.00000000000000000 ) ) ;
#85 =( LENGTH_UNIT ( ) NAMED_UNIT ( * ) SI_UNIT ( .MILLI., .METRE. ) );
#86 = CARTESIAN_POINT ( 'NONE',  ( -49.25000000000000000, 1.499999999999995300, 25.00000000000000000 ) ) ;
#87 = ORIENTED_EDGE ( 'NONE', *, *, #222, .F. ) ;
#88 = ORIENTED_EDGE ( 'NONE', *, *, #233, .T. ) ;
#89 = ORIENTED_EDGE ( 'NONE', *, *, #234, .F. ) ;
#90 = ORIENTED_EDGE ( 'NONE', *, *, #229, .F. ) ;
#91 = ORIENTED_EDGE ( 'NONE', *, *, #228, .T. ) ;
#92 = ORIENTED_EDGE ( 'NONE', *, *, #225, .T. ) ;
#93 = ORIENTED_EDGE ( 'NONE', *, *, #225, .F. ) ;
#94 = ORIENTED_EDGE ( 'NONE', *, *, #232, .T. ) ;
#95 = ORIENTED_EDGE ( 'NONE', *, *, #230, .F. ) ;
#96 = ORIENTED_EDGE ( 'NONE', *, *, #222, .T. ) ;
#97 = ORIENTED_EDGE ( 'NONE', *, *, #229, .T. ) ;
#98 = CLOSED_SHELL ( 'NONE', ( #193, #194, #190, #192, #191, #189 ) ) ;
#99 = ORIENTED_EDGE ( 'NONE', *, *, #233, .F. ) ;
#100 = ORIENTED_EDGE ( 'NONE', *, *, #224, .F. ) ;
#101 = ORIENTED_EDGE ( 'NONE', *, *, #221, .T. ) ;
#102 = ORIENTED_EDGE ( 'NONE', *, *, #224, .T. ) ;
#103 = ORIENTED_EDGE ( 'NONE', *, *, #223, .T. ) ;
#104 = ORIENTED_EDGE ( 'NONE', *, *, #232, .F. ) ;
#105 = ORIENTED_EDGE ( 'NONE', *, *, #223, .F. ) ;
#106 = ORIENTED_EDGE ( 'NONE', *, *, #231, .T. ) ;
#107 = ORIENTED_EDGE ( 'NONE', *, *, #234, .T. ) ;
#108 = VERTEX_POINT ( 'NONE', #32 ) ;
#109 = VERTEX_POINT ( 'NONE', #18 ) ;
#110 = VERTEX_POINT ( 'NONE', #5 ) ;
#111 = VERTEX_POINT ( 'NONE', #19 ) ;
#112 = VERTEX_POINT ( 'NONE', #27 ) ;
#113 = VERTEX_POINT ( 'NONE', #7 ) ;
#114 = VERTEX_POINT ( 'NONE', #26 ) ;
#115 = VECTOR ( 'NONE', #13, 1000.000000000000000 ) ;
#116 = FACE_OUTER_BOUND ( 'NONE', #158, .T. ) ;
#117 = FACE_OUTER_BOUND ( 'NONE', #162, .T. ) ;
#118 = FACE_OUTER_BOUND ( 'NONE', #160, .T. ) ;
#119 = FACE_OUTER_BOUND ( 'NONE', #157, .T. ) ;
#120 = FACE_OUTER_BOUND ( 'NONE', #161, .T. ) ;
#121 = LINE ( 'NONE', #6, #115 ) ;
#122 = LINE ( 'NONE', #24, #125 ) ;
#123 = LINE ( 'NONE', #36, #127 ) ;
#124 = CALENDAR_DATE ( 2012, 12, 11 ) ;
#125 = VECTOR ( 'NONE', #4, 1000.000000000000000 ) ;
#126 = LOCAL_TIME ( 12, 8, 23.00000000000000000, #188 ) ;
#127 = VECTOR ( 'NONE', #68, 1000.000000000000000 ) ;
#128 = ORIENTED_EDGE ( 'NONE', *, *, #228, .F. ) ;
#129 = DATE_AND_TIME ( #124, #126 ) ;
#130 = APPROVAL_DATE_TIME ( #129, #213 ) ;
#131 = PERSON_AND_ORGANIZATION ( #196, #184 ) ;
#132 = COORDINATED_UNIVERSAL_TIME_OFFSET ( 4, 0, .AHEAD. ) ;
#133 = LOCAL_TIME ( 12, 8, 23.00000000000000000, #132 ) ;
#134 = CALENDAR_DATE ( 2012, 12, 11 ) ;
#135 = DATE_AND_TIME ( #134, #133 ) ;
#136 = PERSON_AND_ORGANIZATION ( #196, #184 ) ;
#137 = APPROVAL_PERSON_ORGANIZATION ( #136, #218, #80 ) ;
#138 = COORDINATED_UNIVERSAL_TIME_OFFSET ( 4, 0, .AHEAD. ) ;
#139 = LOCAL_TIME ( 12, 8, 23.00000000000000000, #138 ) ;
#140 = CALENDAR_DATE ( 2012, 12, 11 ) ;
#141 = DATE_AND_TIME ( #140, #139 ) ;
#142 = APPROVAL_DATE_TIME ( #141, #218 ) ;
#143 = PERSON_AND_ORGANIZATION ( #196, #184 ) ;
#144 = PERSON_AND_ORGANIZATION ( #196, #184 ) ;
#145 = PERSON_AND_ORGANIZATION ( #196, #184 ) ;
#146 = COORDINATED_UNIVERSAL_TIME_OFFSET ( 4, 0, .AHEAD. ) ;
#147 = LOCAL_TIME ( 12, 8, 23.00000000000000000, #146 ) ;
#148 = CALENDAR_DATE ( 2012, 12, 11 ) ;
#149 = DATE_AND_TIME ( #148, #147 ) ;
#150 = PERSON_AND_ORGANIZATION ( #196, #184 ) ;
#151 = APPROVAL_PERSON_ORGANIZATION ( #150, #215, #72 ) ;
#152 = COORDINATED_UNIVERSAL_TIME_OFFSET ( 4, 0, .AHEAD. ) ;
#153 = LOCAL_TIME ( 12, 8, 23.00000000000000000, #152 ) ;
#154 = CALENDAR_DATE ( 2012, 12, 11 ) ;
#155 = DATE_AND_TIME ( #154, #153 ) ;
#156 = APPROVAL_DATE_TIME ( #155, #215 ) ;
#157 = EDGE_LOOP ( 'NONE', ( #88, #90, #93, #101 ) ) ;
#158 = EDGE_LOOP ( 'NONE', ( #95, #87, #107, #106 ) ) ;
#159 = EDGE_LOOP ( 'NONE', ( #94, #99, #91, #237 ) ) ;
#160 = EDGE_LOOP ( 'NONE', ( #128, #197, #103, #96 ) ) ;
#161 = EDGE_LOOP ( 'NONE', ( #92, #100, #89, #105 ) ) ;
#162 = EDGE_LOOP ( 'NONE', ( #104, #236, #102, #97 ) ) ;
#163 = VERTEX_POINT ( 'NONE', #3 ) ;
#164 = FACE_OUTER_BOUND ( 'NONE', #159, .T. ) ;
#165 = LINE ( 'NONE', #84, #166 ) ;
#166 = VECTOR ( 'NONE', #71, 1000.000000000000000 ) ;
#167 = LINE ( 'NONE', #86, #174 ) ;
#168 = LINE ( 'NONE', #23, #169 ) ;
#169 = VECTOR ( 'NONE', #75, 1000.000000000000000 ) ;
#170 = LINE ( 'NONE', #70, #179 ) ;
#171 = LINE ( 'NONE', #67, #172 ) ;
#172 = VECTOR ( 'NONE', #48, 1000.000000000000000 ) ;
#173 = LINE ( 'NONE', #69, #176 ) ;
#174 = VECTOR ( 'NONE', #64, 1000.000000000000000 ) ;
#175 = LINE ( 'NONE', #65, #177 ) ;
#176 = VECTOR ( 'NONE', #66, 1000.000000000000000 ) ;
#177 = VECTOR ( 'NONE', #53, 1000.000000000000000 ) ;
#178 = LINE ( 'NONE', #83, #181 ) ;
#179 = VECTOR ( 'NONE', #49, 1000.000000000000000 ) ;
#180 = LINE ( 'NONE', #82, #182 ) ;
#181 = VECTOR ( 'NONE', #81, 1000.000000000000000 ) ;
#182 = VECTOR ( 'NONE', #44, 1000.000000000000000 ) ;
#183 = SHAPE_DEFINITION_REPRESENTATION ( #43, #39 ) ;
#184 = ORGANIZATION ( 'UNSPECIFIED', 'UNSPECIFIED', '' ) ;
#185 = PERSON_AND_ORGANIZATION ( #196, #184 ) ;
#186 = PERSON_AND_ORGANIZATION ( #196, #184 ) ;
#187 = APPROVAL_PERSON_ORGANIZATION ( #186, #213, #63 ) ;
#188 = COORDINATED_UNIVERSAL_TIME_OFFSET ( 4, 0, .AHEAD. ) ;
#189 = ADVANCED_FACE ( 'NONE', ( #164 ), #22, .T. ) ;
#190 = ADVANCED_FACE ( 'NONE', ( #118 ), #35, .T. ) ;
#191 = ADVANCED_FACE ( 'NONE', ( #120 ), #38, .F. ) ;
#192 = ADVANCED_FACE ( 'NONE', ( #119 ), #2, .F. ) ;
#193 = ADVANCED_FACE ( 'NONE', ( #117 ), #11, .T. ) ;
#194 = ADVANCED_FACE ( 'NONE', ( #116 ), #9, .T. ) ;
#195 = PRODUCT ( 'Äåðæàòåëü êàáåëÿ TRC_37562', 'Äåðæàòåëü êàáåëÿ TRC_37562', '', ( #57 ) ) ;
#196 = PERSON ( 'UNSPECIFIED', 'UNSPECIFIED', 'UNSPECIFIED', ('UNSPECIFIED'), ('UNSPECIFIED'), ('UNSPECIFIED') ) ;
#197 = ORIENTED_EDGE ( 'NONE', *, *, #221, .F. ) ;
#198 = CC_DESIGN_APPROVAL ( #218, ( #212 ) ) ;
#199 = CC_DESIGN_PERSON_AND_ORGANIZATION_ASSIGNMENT ( #143, #79, ( #212 ) ) ;
#200 = SECURITY_CLASSIFICATION ( '', '', #47 ) ;
#201 = AXIS2_PLACEMENT_3D ( 'NONE', #52, #58, #77 ) ;
#202 = CC_DESIGN_PERSON_AND_ORGANIZATION_ASSIGNMENT ( #185, #56, ( #195 ) ) ;
#203 = CC_DESIGN_PERSON_AND_ORGANIZATION_ASSIGNMENT ( #131, #59, ( #210 ) ) ;
#204 = CC_DESIGN_APPROVAL ( #213, ( #210 ) ) ;
#205 = CC_DESIGN_DATE_AND_TIME_ASSIGNMENT ( #135, #60, ( #210 ) ) ;
#206 = AXIS2_PLACEMENT_3D ( 'NONE', #25, #15, #17 ) ;
#207 = CC_DESIGN_APPROVAL ( #215, ( #200 ) ) ;
#208 = AXIS2_PLACEMENT_3D ( 'NONE', #37, #10, #8 ) ;
#209 = CC_DESIGN_PERSON_AND_ORGANIZATION_ASSIGNMENT ( #145, #46, ( #200 ) ) ;
#210 = PRODUCT_DEFINITION ( 'UNKNOWN', '', #212, #42 ) ;
#211 = CC_DESIGN_DATE_AND_TIME_ASSIGNMENT ( #149, #74, ( #200 ) ) ;
#212 = PRODUCT_DEFINITION_FORMATION_WITH_SPECIFIED_SOURCE ( 'ANY', '', #195, .NOT_KNOWN. ) ;
#213 = APPROVAL ( #61, 'UNSPECIFIED' ) ;
#214 = AXIS2_PLACEMENT_3D ( 'NONE', #14, #20, #16 ) ;
#215 = APPROVAL ( #73, 'UNSPECIFIED' ) ;
#216 =( GEOMETRIC_REPRESENTATION_CONTEXT ( 3 ) GLOBAL_UNCERTAINTY_ASSIGNED_CONTEXT ( ( #41 ) ) GLOBAL_UNIT_ASSIGNED_CONTEXT ( ( #85, #50, #54 ) ) REPRESENTATION_CONTEXT ( 'NONE', 'WORKASPACE' ) );
#217 = CC_DESIGN_SECURITY_CLASSIFICATION ( #200, ( #212 ) ) ;
#218 = APPROVAL ( #45, 'UNSPECIFIED' ) ;
#219 = CC_DESIGN_PERSON_AND_ORGANIZATION_ASSIGNMENT ( #144, #55, ( #212 ) ) ;
#220 = PRODUCT_RELATED_PRODUCT_CATEGORY ( 'detail', '', ( #195 ) ) ;
#221 = EDGE_CURVE ( 'NONE', #163, #112, #121, .T. ) ;
#222 = EDGE_CURVE ( 'NONE', #109, #114, #122, .T. ) ;
#223 = EDGE_CURVE ( 'NONE', #163, #109, #123, .T. ) ;
#224 = EDGE_CURVE ( 'NONE', #110, #108, #165, .T. ) ;
#225 = EDGE_CURVE ( 'NONE', #163, #108, #168, .T. ) ;
#226 = AXIS2_PLACEMENT_3D ( 'NONE', #29, #33, #34 ) ;
#227 = AXIS2_PLACEMENT_3D ( 'NONE', #31, #21, #1 ) ;
#228 = EDGE_CURVE ( 'NONE', #112, #114, #171, .T. ) ;
#229 = EDGE_CURVE ( 'NONE', #108, #113, #167, .T. ) ;
#230 = EDGE_CURVE ( 'NONE', #114, #111, #173, .T. ) ;
#231 = EDGE_CURVE ( 'NONE', #110, #111, #175, .T. ) ;
#232 = EDGE_CURVE ( 'NONE', #111, #113, #170, .T. ) ;
#233 = EDGE_CURVE ( 'NONE', #112, #113, #178, .T. ) ;
#234 = EDGE_CURVE ( 'NONE', #109, #110, #180, .T. ) ;
#235 = AXIS2_PLACEMENT_3D ( 'NONE', #30, #28, #12 ) ;
#236 = ORIENTED_EDGE ( 'NONE', *, *, #231, .F. ) ;
#237 = ORIENTED_EDGE ( 'NONE', *, *, #230, .T. ) ;
ENDSEC;
END-ISO-10303-21;
