ISO-10303-21;
HEADER;
FILE_DESCRIPTION (( 'STEP AP203' ),
    '1' );
FILE_NAME ('Äåðæàòåëü êàáåëÿ TRC_37563.STEP',
    '2012-11-12T08:08:23',
    ( 'Àñååâ' ),
    ( '' ),
    'SwSTEP 2.0',
    'SolidWorks 2012',
    '' );
FILE_SCHEMA (( 'CONFIG_CONTROL_DESIGN' ));
ENDSEC;

DATA;
#1 = UNCERTAINTY_MEASURE_WITH_UNIT (LENGTH_MEASURE( 1.000000000000000100E-005 ), #42, 'distance_accuracy_value', 'NONE');
#2 = ADVANCED_BREP_SHAPE_REPRESENTATION ( '-õ¨öðªõû¹ úðñõû  TRC_37563', ( #3, #220 ), #227 ) ;
#3 = MANIFOLD_SOLID_BREP ( 'Âûòÿíóòü-Òîíêîñòåííûé1', #168 ) ;
#4 = DESIGN_CONTEXT ( 'detailed design', #26, 'design' ) ;
#5 = PRODUCT_DEFINITION_SHAPE ( 'NONE', 'NONE',  #217 ) ;
#6 = ADVANCED_FACE ( 'NONE', ( #142 ), #78, .F. ) ;
#7 = ADVANCED_FACE ( 'NONE', ( #105 ), #81, .F. ) ;
#8 = ADVANCED_FACE ( 'NONE', ( #106 ), #74, .T. ) ;
#9 = ADVANCED_FACE ( 'NONE', ( #108 ), #70, .T. ) ;
#10 = ADVANCED_FACE ( 'NONE', ( #109 ), #64, .T. ) ;
#11 = ADVANCED_FACE ( 'NONE', ( #110 ), #60, .T. ) ;
#12 = VERTEX_POINT ( 'NONE', #59 ) ;
#13 = CARTESIAN_POINT ( 'NONE',  ( 74.25000000000000000, 1.499999999999994000, 0.0000000000000000000 ) ) ;
#14 = DIRECTION ( 'NONE',  ( -0.0000000000000000000, -0.0000000000000000000, -1.000000000000000000 ) ) ;
#15 = CARTESIAN_POINT ( 'NONE',  ( 74.25000000000000000, 1.499999999999994000, 25.00000000000000000 ) ) ;
#16 = CARTESIAN_POINT ( 'NONE',  ( -74.25000000000000000, -6.071532165918824800E-015, 25.00000000000000000 ) ) ;
#17 = CARTESIAN_POINT ( 'NONE',  ( -74.25000000000000000, 1.499999999999994000, 25.00000000000000000 ) ) ;
#18 = CARTESIAN_POINT ( 'NONE',  ( 74.25000000000000000, -6.071532165918824800E-015, 25.00000000000000000 ) ) ;
#19 = CARTESIAN_POINT ( 'NONE',  ( 74.25000000000000000, 1.499999999999994000, 25.00000000000000000 ) ) ;
#20 = CARTESIAN_POINT ( 'NONE',  ( -49.17157287525385100, 1.500000000000000000, 25.00000000000000000 ) ) ;
#21 = DIRECTION ( 'NONE',  ( 0.0000000000000000000, -1.000000000000000000, 0.0000000000000000000 ) ) ;
#22 = CARTESIAN_POINT ( 'NONE',  ( 74.25000000000000000, 1.499999999999994000, 25.00000000000000000 ) ) ;
#23 = APPROVAL_STATUS ( 'not_yet_approved' ) ;
#24 = PERSON_AND_ORGANIZATION_ROLE ( 'design_owner' ) ;
#25 = DATE_TIME_ROLE ( 'classification_date' ) ;
#26 = APPLICATION_CONTEXT ( 'configuration controlled 3d designs of mechanical parts and assemblies' ) ;
#27 = PERSON_AND_ORGANIZATION_ROLE ( 'design_supplier' ) ;
#28 = APPROVAL_ROLE ( '' ) ;
#29 = APPROVAL_STATUS ( 'not_yet_approved' ) ;
#30 = APPLICATION_PROTOCOL_DEFINITION ( 'international standard', 'config_control_design', 1994, #88 ) ;
#31 = APPROVAL_STATUS ( 'not_yet_approved' ) ;
#32 = PERSON_AND_ORGANIZATION_ROLE ( 'creator' ) ;
#33 = APPROVAL_ROLE ( '' ) ;
#34 = PERSON_AND_ORGANIZATION_ROLE ( 'creator' ) ;
#35 =( NAMED_UNIT ( * ) SI_UNIT ( $, .STERADIAN. ) SOLID_ANGLE_UNIT ( ) );
#36 =( NAMED_UNIT ( * ) PLANE_ANGLE_UNIT ( ) SI_UNIT ( $, .RADIAN. ) );
#37 = DATE_TIME_ROLE ( 'creation_date' ) ;
#38 = CARTESIAN_POINT ( 'NONE',  ( -49.17157287525385100, 0.0000000000000000000, 25.00000000000000000 ) ) ;
#39 = DIRECTION ( 'NONE',  ( 0.0000000000000000000, -1.000000000000000000, 0.0000000000000000000 ) ) ;
#40 = DIRECTION ( 'NONE',  ( 0.0000000000000000000, 0.0000000000000000000, 1.000000000000000000 ) ) ;
#41 = DIRECTION ( 'NONE',  ( 0.0000000000000000000, 0.0000000000000000000, -1.000000000000000000 ) ) ;
#42 =( LENGTH_UNIT ( ) NAMED_UNIT ( * ) SI_UNIT ( .MILLI., .METRE. ) );
#43 = CARTESIAN_POINT ( 'NONE',  ( 74.25000000000000000, -6.071532165918824800E-015, 25.00000000000000000 ) ) ;
#44 = DIRECTION ( 'NONE',  ( -0.0000000000000000000, -0.0000000000000000000, -1.000000000000000000 ) ) ;
#45 = CARTESIAN_POINT ( 'NONE',  ( 0.0000000000000000000, 0.0000000000000000000, 0.0000000000000000000 ) ) ;
#46 = DIRECTION ( 'NONE',  ( 0.0000000000000000000, 1.000000000000000000, 0.0000000000000000000 ) ) ;
#47 = DIRECTION ( 'NONE',  ( -1.000000000000000000, -2.421017927367438200E-016, 0.0000000000000000000 ) ) ;
#48 = DIRECTION ( 'NONE',  ( -0.0000000000000000000, -0.0000000000000000000, -1.000000000000000000 ) ) ;
#49 = CARTESIAN_POINT ( 'NONE',  ( -74.25000000000000000, 1.499999999999994000, 0.0000000000000000000 ) ) ;
#50 = DIRECTION ( 'NONE',  ( -1.000000000000000000, -0.0000000000000000000, 0.0000000000000000000 ) ) ;
#51 = CARTESIAN_POINT ( 'NONE',  ( -74.25000000000000000, -6.071532165918824800E-015, 0.0000000000000000000 ) ) ;
#52 = CARTESIAN_POINT ( 'NONE',  ( -74.25000000000000000, -6.071532165918824800E-015, 25.00000000000000000 ) ) ;
#53 = DIRECTION ( 'NONE',  ( -1.000000000000000000, 2.421017927367438200E-016, -0.0000000000000000000 ) ) ;
#54 = CARTESIAN_POINT ( 'NONE',  ( -74.25000000000000000, -6.071532165918824800E-015, 25.00000000000000000 ) ) ;
#55 = CARTESIAN_POINT ( 'NONE',  ( -49.17157287525385100, 1.500000000000000000, 0.0000000000000000000 ) ) ;
#56 = DIRECTION ( 'NONE',  ( 0.0000000000000000000, 1.000000000000000000, 0.0000000000000000000 ) ) ;
#57 = DIRECTION ( 'NONE',  ( -1.000000000000000000, 0.0000000000000000000, 0.0000000000000000000 ) ) ;
#58 = DIRECTION ( 'NONE',  ( 0.0000000000000000000, 0.0000000000000000000, -1.000000000000000000 ) ) ;
#59 = CARTESIAN_POINT ( 'NONE',  ( 74.25000000000000000, -6.071532165918824800E-015, 0.0000000000000000000 ) ) ;
#60 = PLANE ( 'NONE',  #221 ) ;
#61 = DIRECTION ( 'NONE',  ( 1.000000000000000000, -2.421017927367438200E-016, 0.0000000000000000000 ) ) ;
#62 = DIRECTION ( 'NONE',  ( -2.421017927367438200E-016, -1.000000000000000000, 0.0000000000000000000 ) ) ;
#63 = CARTESIAN_POINT ( 'NONE',  ( 49.17157287525385100, 0.0000000000000000000, 0.0000000000000000000 ) ) ;
#64 = PLANE ( 'NONE',  #222 ) ;
#65 = DIRECTION ( 'NONE',  ( 1.000000000000000000, 0.0000000000000000000, 0.0000000000000000000 ) ) ;
#66 = APPLICATION_PROTOCOL_DEFINITION ( 'international standard', 'config_control_design', 1994, #26 ) ;
#67 = DIRECTION ( 'NONE',  ( -0.0000000000000000000, 0.0000000000000000000, -1.000000000000000000 ) ) ;
#68 = DIRECTION ( 'NONE',  ( 1.000000000000000000, 0.0000000000000000000, -0.0000000000000000000 ) ) ;
#69 = CARTESIAN_POINT ( 'NONE',  ( 0.0000000000000000000, 0.0000000000000000000, 0.0000000000000000000 ) ) ;
#70 = PLANE ( 'NONE',  #226 ) ;
#71 = DIRECTION ( 'NONE',  ( 0.0000000000000000000, 0.0000000000000000000, 1.000000000000000000 ) ) ;
#72 = DIRECTION ( 'NONE',  ( -1.000000000000000000, 0.0000000000000000000, 0.0000000000000000000 ) ) ;
#73 = CARTESIAN_POINT ( 'NONE',  ( 49.17157287525385100, 0.0000000000000000000, 25.00000000000000000 ) ) ;
#74 = PLANE ( 'NONE',  #234 ) ;
#75 = DIRECTION ( 'NONE',  ( -1.000000000000000000, 0.0000000000000000000, 0.0000000000000000000 ) ) ;
#76 = DIRECTION ( 'NONE',  ( 0.0000000000000000000, 0.0000000000000000000, -1.000000000000000000 ) ) ;
#77 = CARTESIAN_POINT ( 'NONE',  ( 74.25000000000000000, 1.499999999999994000, 25.00000000000000000 ) ) ;
#78 = PLANE ( 'NONE',  #230 ) ;
#79 = CARTESIAN_POINT ( 'NONE',  ( -49.17157287525385100, 1.500000000000000000, 25.00000000000000000 ) ) ;
#80 = CARTESIAN_POINT ( 'NONE',  ( -74.25000000000000000, -6.071532165918824800E-015, 25.00000000000000000 ) ) ;
#81 = PLANE ( 'NONE',  #232 ) ;
#82 = DIRECTION ( 'NONE',  ( 0.0000000000000000000, -1.000000000000000000, 0.0000000000000000000 ) ) ;
#83 = CARTESIAN_POINT ( 'NONE',  ( 0.0000000000000000000, 0.0000000000000000000, 25.00000000000000000 ) ) ;
#84 = CARTESIAN_POINT ( 'NONE',  ( 74.25000000000000000, 1.499999999999994000, 0.0000000000000000000 ) ) ;
#85 = APPROVAL_ROLE ( '' ) ;
#86 = MECHANICAL_CONTEXT ( 'NONE', #88, 'mechanical' ) ;
#87 = CARTESIAN_POINT ( 'NONE',  ( -74.25000000000000000, 1.499999999999994000, 25.00000000000000000 ) ) ;
#88 = APPLICATION_CONTEXT ( 'configuration controlled 3d designs of mechanical parts and assemblies' ) ;
#89 = CARTESIAN_POINT ( 'NONE',  ( -74.25000000000000000, -6.071532165918824800E-015, 0.0000000000000000000 ) ) ;
#90 = DIRECTION ( 'NONE',  ( -0.0000000000000000000, -0.0000000000000000000, -1.000000000000000000 ) ) ;
#91 = DIRECTION ( 'NONE',  ( -1.000000000000000000, -2.421017927367438200E-016, 0.0000000000000000000 ) ) ;
#92 = SECURITY_CLASSIFICATION_LEVEL ( 'unclassified' ) ;
#93 = PERSON_AND_ORGANIZATION_ROLE ( 'classification_officer' ) ;
#94 = EDGE_CURVE ( 'NONE', #12, #101, #107, .T. ) ;
#95 = EDGE_CURVE ( 'NONE', #102, #104, #112, .T. ) ;
#96 = EDGE_CURVE ( 'NONE', #100, #134, #113, .T. ) ;
#97 = EDGE_CURVE ( 'NONE', #102, #101, #115, .T. ) ;
#98 = EDGE_CURVE ( 'NONE', #101, #134, #116, .T. ) ;
#99 = EDGE_CURVE ( 'NONE', #103, #12, #120, .T. ) ;
#100 = VERTEX_POINT ( 'NONE', #84 ) ;
#101 = VERTEX_POINT ( 'NONE', #89 ) ;
#102 = VERTEX_POINT ( 'NONE', #16 ) ;
#103 = VERTEX_POINT ( 'NONE', #18 ) ;
#104 = VERTEX_POINT ( 'NONE', #17 ) ;
#105 = FACE_OUTER_BOUND ( 'NONE', #163, .T. ) ;
#106 = FACE_OUTER_BOUND ( 'NONE', #160, .T. ) ;
#107 = LINE ( 'NONE', #63, #114 ) ;
#108 = FACE_OUTER_BOUND ( 'NONE', #164, .T. ) ;
#109 = FACE_OUTER_BOUND ( 'NONE', #156, .T. ) ;
#110 = FACE_OUTER_BOUND ( 'NONE', #161, .T. ) ;
#111 = VECTOR ( 'NONE', #56, 1000.000000000000000 ) ;
#112 = LINE ( 'NONE', #52, #111 ) ;
#113 = LINE ( 'NONE', #55, #117 ) ;
#114 = VECTOR ( 'NONE', #53, 1000.000000000000000 ) ;
#115 = LINE ( 'NONE', #54, #119 ) ;
#116 = LINE ( 'NONE', #51, #121 ) ;
#117 = VECTOR ( 'NONE', #50, 1000.000000000000000 ) ;
#118 = LINE ( 'NONE', #38, #130 ) ;
#119 = VECTOR ( 'NONE', #48, 1000.000000000000000 ) ;
#120 = LINE ( 'NONE', #43, #123 ) ;
#121 = VECTOR ( 'NONE', #46, 1000.000000000000000 ) ;
#122 = LINE ( 'NONE', #13, #128 ) ;
#123 = VECTOR ( 'NONE', #44, 1000.000000000000000 ) ;
#124 = VECTOR ( 'NONE', #47, 1000.000000000000000 ) ;
#125 = VECTOR ( 'NONE', #21, 1000.000000000000000 ) ;
#126 = LINE ( 'NONE', #20, #124 ) ;
#127 = LINE ( 'NONE', #22, #125 ) ;
#128 = VECTOR ( 'NONE', #39, 1000.000000000000000 ) ;
#129 = LINE ( 'NONE', #87, #132 ) ;
#130 = VECTOR ( 'NONE', #91, 1000.000000000000000 ) ;
#131 = LINE ( 'NONE', #15, #133 ) ;
#132 = VECTOR ( 'NONE', #90, 1000.000000000000000 ) ;
#133 = VECTOR ( 'NONE', #14, 1000.000000000000000 ) ;
#134 = VERTEX_POINT ( 'NONE', #49 ) ;
#135 = PRODUCT ( 'Äåðæàòåëü êàáåëÿ TRC_37563', 'Äåðæàòåëü êàáåëÿ TRC_37563', '', ( #86 ) ) ;
#136 = PERSON ( 'UNSPECIFIED', 'UNSPECIFIED', 'UNSPECIFIED', ('UNSPECIFIED'), ('UNSPECIFIED'), ('UNSPECIFIED') ) ;
#137 = VERTEX_POINT ( 'NONE', #19 ) ;
#138 = ORIENTED_EDGE ( 'NONE', *, *, #96, .T. ) ;
#139 = ORIENTED_EDGE ( 'NONE', *, *, #236, .T. ) ;
#140 = ORIENTED_EDGE ( 'NONE', *, *, #237, .T. ) ;
#141 = ORIENTED_EDGE ( 'NONE', *, *, #94, .F. ) ;
#142 = FACE_OUTER_BOUND ( 'NONE', #159, .T. ) ;
#143 = ORIENTED_EDGE ( 'NONE', *, *, #229, .F. ) ;
#144 = ORIENTED_EDGE ( 'NONE', *, *, #97, .F. ) ;
#145 = ORIENTED_EDGE ( 'NONE', *, *, #235, .T. ) ;
#146 = ORIENTED_EDGE ( 'NONE', *, *, #96, .F. ) ;
#147 = ORIENTED_EDGE ( 'NONE', *, *, #236, .F. ) ;
#148 = ORIENTED_EDGE ( 'NONE', *, *, #99, .T. ) ;
#149 = ORIENTED_EDGE ( 'NONE', *, *, #98, .T. ) ;
#150 = ORIENTED_EDGE ( 'NONE', *, *, #97, .T. ) ;
#151 = ORIENTED_EDGE ( 'NONE', *, *, #98, .F. ) ;
#152 = ORIENTED_EDGE ( 'NONE', *, *, #235, .F. ) ;
#153 = ORIENTED_EDGE ( 'NONE', *, *, #95, .T. ) ;
#154 = ORIENTED_EDGE ( 'NONE', *, *, #237, .F. ) ;
#155 = ORIENTED_EDGE ( 'NONE', *, *, #219, .F. ) ;
#156 = EDGE_LOOP ( 'NONE', ( #141, #167, #145, #150 ) ) ;
#157 = ORIENTED_EDGE ( 'NONE', *, *, #219, .T. ) ;
#158 = ORIENTED_EDGE ( 'NONE', *, *, #95, .F. ) ;
#159 = EDGE_LOOP ( 'NONE', ( #138, #147, #166, #140 ) ) ;
#160 = EDGE_LOOP ( 'NONE', ( #151, #144, #153, #139 ) ) ;
#161 = EDGE_LOOP ( 'NONE', ( #149, #146, #169, #165 ) ) ;
#162 = ORIENTED_EDGE ( 'NONE', *, *, #218, .T. ) ;
#163 = EDGE_LOOP ( 'NONE', ( #162, #158, #152, #155 ) ) ;
#164 = EDGE_LOOP ( 'NONE', ( #143, #154, #157, #148 ) ) ;
#165 = ORIENTED_EDGE ( 'NONE', *, *, #94, .T. ) ;
#166 = ORIENTED_EDGE ( 'NONE', *, *, #218, .F. ) ;
#167 = ORIENTED_EDGE ( 'NONE', *, *, #99, .F. ) ;
#168 = CLOSED_SHELL ( 'NONE', ( #8, #10, #9, #6, #7, #11 ) ) ;
#169 = ORIENTED_EDGE ( 'NONE', *, *, #229, .T. ) ;
#170 = CC_DESIGN_DATE_AND_TIME_ASSIGNMENT ( #203, #25, ( #223 ) ) ;
#171 = APPROVAL ( #23, 'UNSPECIFIED' ) ;
#172 = CC_DESIGN_SECURITY_CLASSIFICATION ( #223, ( #233 ) ) ;
#173 = CC_DESIGN_APPROVAL ( #171, ( #223 ) ) ;
#174 = PRODUCT_RELATED_PRODUCT_CATEGORY ( 'detail', '', ( #135 ) ) ;
#175 = SHAPE_DEFINITION_REPRESENTATION ( #5, #2 ) ;
#176 = ORGANIZATION ( 'UNSPECIFIED', 'UNSPECIFIED', '' ) ;
#177 = PERSON_AND_ORGANIZATION ( #136, #176 ) ;
#178 = PERSON_AND_ORGANIZATION ( #136, #176 ) ;
#179 = APPROVAL_PERSON_ORGANIZATION ( #178, #224, #28 ) ;
#180 = COORDINATED_UNIVERSAL_TIME_OFFSET ( 4, 0, .AHEAD. ) ;
#181 = LOCAL_TIME ( 12, 8, 23.00000000000000000, #180 ) ;
#182 = CALENDAR_DATE ( 2012, 12, 11 ) ;
#183 = DATE_AND_TIME ( #182, #181 ) ;
#184 = APPROVAL_DATE_TIME ( #183, #224 ) ;
#185 = PERSON_AND_ORGANIZATION ( #136, #176 ) ;
#186 = COORDINATED_UNIVERSAL_TIME_OFFSET ( 4, 0, .AHEAD. ) ;
#187 = LOCAL_TIME ( 12, 8, 23.00000000000000000, #186 ) ;
#188 = CALENDAR_DATE ( 2012, 12, 11 ) ;
#189 = DATE_AND_TIME ( #188, #187 ) ;
#190 = PERSON_AND_ORGANIZATION ( #136, #176 ) ;
#191 = APPROVAL_PERSON_ORGANIZATION ( #190, #225, #33 ) ;
#192 = COORDINATED_UNIVERSAL_TIME_OFFSET ( 4, 0, .AHEAD. ) ;
#193 = LOCAL_TIME ( 12, 8, 23.00000000000000000, #192 ) ;
#194 = CALENDAR_DATE ( 2012, 12, 11 ) ;
#195 = DATE_AND_TIME ( #194, #193 ) ;
#196 = APPROVAL_DATE_TIME ( #195, #225 ) ;
#197 = PERSON_AND_ORGANIZATION ( #136, #176 ) ;
#198 = PERSON_AND_ORGANIZATION ( #136, #176 ) ;
#199 = PERSON_AND_ORGANIZATION ( #136, #176 ) ;
#200 = COORDINATED_UNIVERSAL_TIME_OFFSET ( 4, 0, .AHEAD. ) ;
#201 = LOCAL_TIME ( 12, 8, 23.00000000000000000, #200 ) ;
#202 = CALENDAR_DATE ( 2012, 12, 11 ) ;
#203 = DATE_AND_TIME ( #202, #201 ) ;
#204 = PERSON_AND_ORGANIZATION ( #136, #176 ) ;
#205 = APPROVAL_PERSON_ORGANIZATION ( #204, #171, #85 ) ;
#206 = COORDINATED_UNIVERSAL_TIME_OFFSET ( 4, 0, .AHEAD. ) ;
#207 = LOCAL_TIME ( 12, 8, 23.00000000000000000, #206 ) ;
#208 = CALENDAR_DATE ( 2012, 12, 11 ) ;
#209 = DATE_AND_TIME ( #208, #207 ) ;
#210 = APPROVAL_DATE_TIME ( #209, #171 ) ;
#211 = CC_DESIGN_APPROVAL ( #224, ( #217 ) ) ;
#212 = CC_DESIGN_APPROVAL ( #225, ( #233 ) ) ;
#213 = CC_DESIGN_PERSON_AND_ORGANIZATION_ASSIGNMENT ( #185, #34, ( #217 ) ) ;
#214 = CC_DESIGN_PERSON_AND_ORGANIZATION_ASSIGNMENT ( #199, #93, ( #223 ) ) ;
#215 = CC_DESIGN_PERSON_AND_ORGANIZATION_ASSIGNMENT ( #177, #24, ( #135 ) ) ;
#216 = CC_DESIGN_PERSON_AND_ORGANIZATION_ASSIGNMENT ( #198, #27, ( #233 ) ) ;
#217 = PRODUCT_DEFINITION ( 'UNKNOWN', '', #233, #4 ) ;
#218 = EDGE_CURVE ( 'NONE', #137, #104, #126, .T. ) ;
#219 = EDGE_CURVE ( 'NONE', #137, #103, #127, .T. ) ;
#220 = AXIS2_PLACEMENT_3D ( 'NONE', #45, #40, #65 ) ;
#221 = AXIS2_PLACEMENT_3D ( 'NONE', #69, #58, #57 ) ;
#222 = AXIS2_PLACEMENT_3D ( 'NONE', #73, #62, #61 ) ;
#223 = SECURITY_CLASSIFICATION ( '', '', #92 ) ;
#224 = APPROVAL ( #29, 'UNSPECIFIED' ) ;
#225 = APPROVAL ( #31, 'UNSPECIFIED' ) ;
#226 = AXIS2_PLACEMENT_3D ( 'NONE', #77, #68, #67 ) ;
#227 =( GEOMETRIC_REPRESENTATION_CONTEXT ( 3 ) GLOBAL_UNCERTAINTY_ASSIGNED_CONTEXT ( ( #1 ) ) GLOBAL_UNIT_ASSIGNED_CONTEXT ( ( #42, #36, #35 ) ) REPRESENTATION_CONTEXT ( 'NONE', 'WORKASPACE' ) );
#228 = CC_DESIGN_DATE_AND_TIME_ASSIGNMENT ( #189, #37, ( #217 ) ) ;
#229 = EDGE_CURVE ( 'NONE', #100, #12, #122, .T. ) ;
#230 = AXIS2_PLACEMENT_3D ( 'NONE', #79, #82, #41 ) ;
#231 = CC_DESIGN_PERSON_AND_ORGANIZATION_ASSIGNMENT ( #197, #32, ( #233 ) ) ;
#232 = AXIS2_PLACEMENT_3D ( 'NONE', #83, #76, #75 ) ;
#233 = PRODUCT_DEFINITION_FORMATION_WITH_SPECIFIED_SOURCE ( 'ANY', '', #135, .NOT_KNOWN. ) ;
#234 = AXIS2_PLACEMENT_3D ( 'NONE', #80, #72, #71 ) ;
#235 = EDGE_CURVE ( 'NONE', #103, #102, #118, .T. ) ;
#236 = EDGE_CURVE ( 'NONE', #104, #134, #129, .T. ) ;
#237 = EDGE_CURVE ( 'NONE', #137, #100, #131, .T. ) ;
ENDSEC;
END-ISO-10303-21;
