ISO-10303-21;
HEADER;
FILE_DESCRIPTION (( 'STEP AP203' ),
    '1' );
FILE_NAME ('Äåðæàòåëü êàáåëÿ TRC_37564.STEP',
    '2012-11-12T08:08:24',
    ( 'Àñååâ' ),
    ( '' ),
    'SwSTEP 2.0',
    'SolidWorks 2012',
    '' );
FILE_SCHEMA (( 'CONFIG_CONTROL_DESIGN' ));
ENDSEC;

DATA;
#1 = MANIFOLD_SOLID_BREP ( 'Âûòÿíóòü-Òîíêîñòåííûé1', #141 ) ;
#2 = ADVANCED_BREP_SHAPE_REPRESENTATION ( '-õ¨öðªõû¹ úðñõû  TRC_37564', ( #1, #160 ), #148 ) ;
#3 = UNCERTAINTY_MEASURE_WITH_UNIT (LENGTH_MEASURE( 1.000000000000000100E-005 ), #8, 'distance_accuracy_value', 'NONE');
#4 = DESIGN_CONTEXT ( 'detailed design', #68, 'design' ) ;
#5 = PRODUCT_DEFINITION_SHAPE ( 'NONE', 'NONE',  #144 ) ;
#6 = ORIENTED_EDGE ( 'NONE', *, *, #157, .F. ) ;
#7 = CARTESIAN_POINT ( 'NONE',  ( 99.25000000000000000, 1.499999999999994000, 25.00000000000000000 ) ) ;
#8 =( LENGTH_UNIT ( ) NAMED_UNIT ( * ) SI_UNIT ( .MILLI., .METRE. ) );
#9 = DIRECTION ( 'NONE',  ( 0.0000000000000000000, 1.000000000000000000, 0.0000000000000000000 ) ) ;
#10 = PERSON_AND_ORGANIZATION_ROLE ( 'creator' ) ;
#11 = CARTESIAN_POINT ( 'NONE',  ( -99.25000000000000000, 1.499999999999994000, 0.0000000000000000000 ) ) ;
#12 = PLANE ( 'NONE',  #147 ) ;
#13 = CARTESIAN_POINT ( 'NONE',  ( 99.25000000000000000, -6.071532165918824800E-015, 25.00000000000000000 ) ) ;
#14 = CARTESIAN_POINT ( 'NONE',  ( 99.25000000000000000, -6.071532165918824800E-015, 0.0000000000000000000 ) ) ;
#15 =( NAMED_UNIT ( * ) SI_UNIT ( $, .STERADIAN. ) SOLID_ANGLE_UNIT ( ) );
#16 =( NAMED_UNIT ( * ) PLANE_ANGLE_UNIT ( ) SI_UNIT ( $, .RADIAN. ) );
#17 = APPLICATION_PROTOCOL_DEFINITION ( 'international standard', 'config_control_design', 1994, #43 ) ;
#18 = DIRECTION ( 'NONE',  ( -1.000000000000000000, 0.0000000000000000000, 0.0000000000000000000 ) ) ;
#19 = DIRECTION ( 'NONE',  ( 0.0000000000000000000, 0.0000000000000000000, -1.000000000000000000 ) ) ;
#20 = CARTESIAN_POINT ( 'NONE',  ( 0.0000000000000000000, 0.0000000000000000000, 0.0000000000000000000 ) ) ;
#21 = PLANE ( 'NONE',  #154 ) ;
#22 = DATE_TIME_ROLE ( 'creation_date' ) ;
#23 = DIRECTION ( 'NONE',  ( -1.000000000000000000, 0.0000000000000000000, 0.0000000000000000000 ) ) ;
#24 = DIRECTION ( 'NONE',  ( 0.0000000000000000000, 0.0000000000000000000, -1.000000000000000000 ) ) ;
#25 = PERSON_AND_ORGANIZATION_ROLE ( 'design_owner' ) ;
#26 = MECHANICAL_CONTEXT ( 'NONE', #43, 'mechanical' ) ;
#27 = SECURITY_CLASSIFICATION_LEVEL ( 'unclassified' ) ;
#28 = DIRECTION ( 'NONE',  ( -1.000000000000000000, 2.421017927367438200E-016, -0.0000000000000000000 ) ) ;
#29 = APPROVAL_ROLE ( '' ) ;
#30 = APPROVAL_STATUS ( 'not_yet_approved' ) ;
#31 = PLANE ( 'NONE',  #163 ) ;
#32 = DIRECTION ( 'NONE',  ( 0.0000000000000000000, -1.000000000000000000, 0.0000000000000000000 ) ) ;
#33 = CARTESIAN_POINT ( 'NONE',  ( 74.17157287525385800, 0.0000000000000000000, 0.0000000000000000000 ) ) ;
#34 = CARTESIAN_POINT ( 'NONE',  ( -99.25000000000000000, 1.499999999999994000, 25.00000000000000000 ) ) ;
#35 = DIRECTION ( 'NONE',  ( 1.000000000000000000, -2.421017927367438200E-016, 0.0000000000000000000 ) ) ;
#36 = DIRECTION ( 'NONE',  ( -2.421017927367438200E-016, -1.000000000000000000, 0.0000000000000000000 ) ) ;
#37 = CARTESIAN_POINT ( 'NONE',  ( 99.25000000000000000, -6.071532165918824800E-015, 25.00000000000000000 ) ) ;
#38 = DATE_TIME_ROLE ( 'classification_date' ) ;
#39 = PERSON_AND_ORGANIZATION_ROLE ( 'classification_officer' ) ;
#40 = CARTESIAN_POINT ( 'NONE',  ( -99.25000000000000000, -6.071532165918824800E-015, 25.00000000000000000 ) ) ;
#41 = DIRECTION ( 'NONE',  ( 0.0000000000000000000, 1.000000000000000000, 0.0000000000000000000 ) ) ;
#42 = APPROVAL_ROLE ( '' ) ;
#43 = APPLICATION_CONTEXT ( 'configuration controlled 3d designs of mechanical parts and assemblies' ) ;
#44 = CARTESIAN_POINT ( 'NONE',  ( -99.25000000000000000, -6.071532165918824800E-015, 25.00000000000000000 ) ) ;
#45 = DIRECTION ( 'NONE',  ( 1.000000000000000000, 0.0000000000000000000, 0.0000000000000000000 ) ) ;
#46 = DIRECTION ( 'NONE',  ( 0.0000000000000000000, 0.0000000000000000000, 1.000000000000000000 ) ) ;
#47 = CARTESIAN_POINT ( 'NONE',  ( -99.25000000000000000, -6.071532165918824800E-015, 0.0000000000000000000 ) ) ;
#48 = CARTESIAN_POINT ( 'NONE',  ( -74.17157287525385800, 1.500000000000000000, 25.00000000000000000 ) ) ;
#49 = CARTESIAN_POINT ( 'NONE',  ( 99.25000000000000000, 1.499999999999994000, 25.00000000000000000 ) ) ;
#50 = CARTESIAN_POINT ( 'NONE',  ( -99.25000000000000000, -6.071532165918824800E-015, 0.0000000000000000000 ) ) ;
#51 = DIRECTION ( 'NONE',  ( -1.000000000000000000, -2.421017927367438200E-016, 0.0000000000000000000 ) ) ;
#52 = CARTESIAN_POINT ( 'NONE',  ( -99.25000000000000000, -6.071532165918824800E-015, 25.00000000000000000 ) ) ;
#53 = DIRECTION ( 'NONE',  ( 0.0000000000000000000, -1.000000000000000000, 0.0000000000000000000 ) ) ;
#54 = CARTESIAN_POINT ( 'NONE',  ( 99.25000000000000000, 1.499999999999994000, 0.0000000000000000000 ) ) ;
#55 = DIRECTION ( 'NONE',  ( -0.0000000000000000000, -0.0000000000000000000, -1.000000000000000000 ) ) ;
#56 = DIRECTION ( 'NONE',  ( -0.0000000000000000000, -0.0000000000000000000, -1.000000000000000000 ) ) ;
#57 = DIRECTION ( 'NONE',  ( 1.000000000000000000, 0.0000000000000000000, -0.0000000000000000000 ) ) ;
#58 = CARTESIAN_POINT ( 'NONE',  ( -74.17157287525385800, 1.500000000000000000, 25.00000000000000000 ) ) ;
#59 = CARTESIAN_POINT ( 'NONE',  ( 0.0000000000000000000, 0.0000000000000000000, 25.00000000000000000 ) ) ;
#60 = CARTESIAN_POINT ( 'NONE',  ( -99.25000000000000000, -6.071532165918824800E-015, 25.00000000000000000 ) ) ;
#61 = DIRECTION ( 'NONE',  ( -1.000000000000000000, 0.0000000000000000000, 0.0000000000000000000 ) ) ;
#62 = PERSON_AND_ORGANIZATION_ROLE ( 'creator' ) ;
#63 = PLANE ( 'NONE',  #153 ) ;
#64 = DIRECTION ( 'NONE',  ( 0.0000000000000000000, 0.0000000000000000000, 1.000000000000000000 ) ) ;
#65 = CARTESIAN_POINT ( 'NONE',  ( -74.17157287525385800, 0.0000000000000000000, 25.00000000000000000 ) ) ;
#66 = DIRECTION ( 'NONE',  ( -0.0000000000000000000, -0.0000000000000000000, -1.000000000000000000 ) ) ;
#67 = DIRECTION ( 'NONE',  ( -1.000000000000000000, -0.0000000000000000000, 0.0000000000000000000 ) ) ;
#68 = APPLICATION_CONTEXT ( 'configuration controlled 3d designs of mechanical parts and assemblies' ) ;
#69 = APPLICATION_PROTOCOL_DEFINITION ( 'international standard', 'config_control_design', 1994, #68 ) ;
#70 = APPROVAL_STATUS ( 'not_yet_approved' ) ;
#71 = PERSON_AND_ORGANIZATION_ROLE ( 'design_supplier' ) ;
#72 = DIRECTION ( 'NONE',  ( -0.0000000000000000000, -0.0000000000000000000, -1.000000000000000000 ) ) ;
#73 = DIRECTION ( 'NONE',  ( -0.0000000000000000000, 0.0000000000000000000, -1.000000000000000000 ) ) ;
#74 = DIRECTION ( 'NONE',  ( 0.0000000000000000000, -1.000000000000000000, 0.0000000000000000000 ) ) ;
#75 = CARTESIAN_POINT ( 'NONE',  ( 74.17157287525385800, 0.0000000000000000000, 25.00000000000000000 ) ) ;
#76 = CARTESIAN_POINT ( 'NONE',  ( 0.0000000000000000000, 0.0000000000000000000, 0.0000000000000000000 ) ) ;
#77 = PLANE ( 'NONE',  #146 ) ;
#78 = DIRECTION ( 'NONE',  ( 0.0000000000000000000, 0.0000000000000000000, -1.000000000000000000 ) ) ;
#79 = PLANE ( 'NONE',  #152 ) ;
#80 = APPROVAL_ROLE ( '' ) ;
#81 = APPROVAL_STATUS ( 'not_yet_approved' ) ;
#82 = DIRECTION ( 'NONE',  ( -1.000000000000000000, -2.421017927367438200E-016, 0.0000000000000000000 ) ) ;
#83 = CARTESIAN_POINT ( 'NONE',  ( -74.17157287525385800, 1.500000000000000000, 0.0000000000000000000 ) ) ;
#84 = CARTESIAN_POINT ( 'NONE',  ( -99.25000000000000000, 1.499999999999994000, 25.00000000000000000 ) ) ;
#85 = CARTESIAN_POINT ( 'NONE',  ( 99.25000000000000000, 1.499999999999994000, 25.00000000000000000 ) ) ;
#86 = CARTESIAN_POINT ( 'NONE',  ( 99.25000000000000000, 1.499999999999994000, 0.0000000000000000000 ) ) ;
#87 = CARTESIAN_POINT ( 'NONE',  ( 99.25000000000000000, 1.499999999999994000, 25.00000000000000000 ) ) ;
#88 = ORIENTED_EDGE ( 'NONE', *, *, #145, .F. ) ;
#89 = COORDINATED_UNIVERSAL_TIME_OFFSET ( 4, 0, .AHEAD. ) ;
#90 = LOCAL_TIME ( 12, 8, 24.00000000000000000, #89 ) ;
#91 = CALENDAR_DATE ( 2012, 12, 11 ) ;
#92 = DATE_AND_TIME ( #91, #90 ) ;
#93 = APPROVAL_DATE_TIME ( #92, #223 ) ;
#94 = PERSON_AND_ORGANIZATION ( #127, #211 ) ;
#95 = COORDINATED_UNIVERSAL_TIME_OFFSET ( 4, 0, .AHEAD. ) ;
#96 = LOCAL_TIME ( 12, 8, 24.00000000000000000, #95 ) ;
#97 = CALENDAR_DATE ( 2012, 12, 11 ) ;
#98 = DATE_AND_TIME ( #97, #96 ) ;
#99 = PERSON_AND_ORGANIZATION ( #127, #211 ) ;
#100 = APPROVAL_PERSON_ORGANIZATION ( #99, #236, #80 ) ;
#101 = COORDINATED_UNIVERSAL_TIME_OFFSET ( 4, 0, .AHEAD. ) ;
#102 = LOCAL_TIME ( 12, 8, 24.00000000000000000, #101 ) ;
#103 = CALENDAR_DATE ( 2012, 12, 11 ) ;
#104 = DATE_AND_TIME ( #103, #102 ) ;
#105 = APPROVAL_DATE_TIME ( #104, #236 ) ;
#106 = PERSON_AND_ORGANIZATION ( #127, #211 ) ;
#107 = PERSON_AND_ORGANIZATION ( #127, #211 ) ;
#108 = PERSON_AND_ORGANIZATION ( #127, #211 ) ;
#109 = COORDINATED_UNIVERSAL_TIME_OFFSET ( 4, 0, .AHEAD. ) ;
#110 = LOCAL_TIME ( 12, 8, 24.00000000000000000, #109 ) ;
#111 = CALENDAR_DATE ( 2012, 12, 11 ) ;
#112 = DATE_AND_TIME ( #111, #110 ) ;
#113 = PERSON_AND_ORGANIZATION ( #127, #211 ) ;
#114 = APPROVAL_PERSON_ORGANIZATION ( #113, #226, #29 ) ;
#115 = COORDINATED_UNIVERSAL_TIME_OFFSET ( 4, 0, .AHEAD. ) ;
#116 = LOCAL_TIME ( 12, 8, 24.00000000000000000, #115 ) ;
#117 = CALENDAR_DATE ( 2012, 12, 11 ) ;
#118 = DATE_AND_TIME ( #117, #116 ) ;
#119 = APPROVAL_DATE_TIME ( #118, #226 ) ;
#120 = ADVANCED_FACE ( 'NONE', ( #128 ), #31, .T. ) ;
#121 = ADVANCED_FACE ( 'NONE', ( #188 ), #63, .T. ) ;
#122 = ADVANCED_FACE ( 'NONE', ( #189 ), #79, .F. ) ;
#123 = ADVANCED_FACE ( 'NONE', ( #191 ), #77, .F. ) ;
#124 = ADVANCED_FACE ( 'NONE', ( #192 ), #21, .T. ) ;
#125 = ADVANCED_FACE ( 'NONE', ( #193 ), #12, .T. ) ;
#126 = PRODUCT ( 'Äåðæàòåëü êàáåëÿ TRC_37564', 'Äåðæàòåëü êàáåëÿ TRC_37564', '', ( #26 ) ) ;
#127 = PERSON ( 'UNSPECIFIED', 'UNSPECIFIED', 'UNSPECIFIED', ('UNSPECIFIED'), ('UNSPECIFIED'), ('UNSPECIFIED') ) ;
#128 = FACE_OUTER_BOUND ( 'NONE', #135, .T. ) ;
#129 = VERTEX_POINT ( 'NONE', #47 ) ;
#130 = EDGE_LOOP ( 'NONE', ( #166, #138, #139, #177 ) ) ;
#131 = EDGE_LOOP ( 'NONE', ( #140, #172, #142, #170 ) ) ;
#132 = EDGE_LOOP ( 'NONE', ( #178, #168, #133, #180 ) ) ;
#133 = ORIENTED_EDGE ( 'NONE', *, *, #151, .T. ) ;
#134 = EDGE_LOOP ( 'NONE', ( #6, #167, #175, #169 ) ) ;
#135 = EDGE_LOOP ( 'NONE', ( #88, #165, #179, #136 ) ) ;
#136 = ORIENTED_EDGE ( 'NONE', *, *, #155, .T. ) ;
#137 = EDGE_LOOP ( 'NONE', ( #173, #176, #171, #174 ) ) ;
#138 = ORIENTED_EDGE ( 'NONE', *, *, #155, .F. ) ;
#139 = ORIENTED_EDGE ( 'NONE', *, *, #150, .F. ) ;
#140 = ORIENTED_EDGE ( 'NONE', *, *, #151, .F. ) ;
#141 = CLOSED_SHELL ( 'NONE', ( #120, #125, #121, #123, #122, #124 ) ) ;
#142 = ORIENTED_EDGE ( 'NONE', *, *, #149, .T. ) ;
#143 = CC_DESIGN_PERSON_AND_ORGANIZATION_ASSIGNMENT ( #217, #25, ( #126 ) ) ;
#144 = PRODUCT_DEFINITION ( 'UNKNOWN', '', #222, #4 ) ;
#145 = EDGE_CURVE ( 'NONE', #129, #182, #190, .T. ) ;
#146 = AXIS2_PLACEMENT_3D ( 'NONE', #58, #74, #78 ) ;
#147 = AXIS2_PLACEMENT_3D ( 'NONE', #75, #36, #35 ) ;
#148 =( GEOMETRIC_REPRESENTATION_CONTEXT ( 3 ) GLOBAL_UNCERTAINTY_ASSIGNED_CONTEXT ( ( #3 ) ) GLOBAL_UNIT_ASSIGNED_CONTEXT ( ( #8, #16, #15 ) ) REPRESENTATION_CONTEXT ( 'NONE', 'WORKASPACE' ) );
#149 = EDGE_CURVE ( 'NONE', #187, #185, #194, .T. ) ;
#150 = EDGE_CURVE ( 'NONE', #187, #186, #196, .T. ) ;
#151 = EDGE_CURVE ( 'NONE', #181, #183, #197, .T. ) ;
#152 = AXIS2_PLACEMENT_3D ( 'NONE', #59, #19, #18 ) ;
#153 = AXIS2_PLACEMENT_3D ( 'NONE', #85, #57, #73 ) ;
#154 = AXIS2_PLACEMENT_3D ( 'NONE', #20, #24, #23 ) ;
#155 = EDGE_CURVE ( 'NONE', #186, #182, #201, .T. ) ;
#156 = EDGE_CURVE ( 'NONE', #184, #129, #199, .T. ) ;
#157 = EDGE_CURVE ( 'NONE', #183, #129, #203, .T. ) ;
#158 = EDGE_CURVE ( 'NONE', #185, #184, #207, .T. ) ;
#159 = EDGE_CURVE ( 'NONE', #181, #182, #209, .T. ) ;
#160 = AXIS2_PLACEMENT_3D ( 'NONE', #76, #46, #45 ) ;
#161 = EDGE_CURVE ( 'NONE', #185, #183, #205, .T. ) ;
#162 = EDGE_CURVE ( 'NONE', #187, #181, #213, .T. ) ;
#163 = AXIS2_PLACEMENT_3D ( 'NONE', #60, #61, #64 ) ;
#164 = EDGE_CURVE ( 'NONE', #184, #186, #215, .T. ) ;
#165 = ORIENTED_EDGE ( 'NONE', *, *, #156, .F. ) ;
#166 = ORIENTED_EDGE ( 'NONE', *, *, #159, .T. ) ;
#167 = ORIENTED_EDGE ( 'NONE', *, *, #161, .F. ) ;
#168 = ORIENTED_EDGE ( 'NONE', *, *, #159, .F. ) ;
#169 = ORIENTED_EDGE ( 'NONE', *, *, #156, .T. ) ;
#170 = ORIENTED_EDGE ( 'NONE', *, *, #161, .T. ) ;
#171 = ORIENTED_EDGE ( 'NONE', *, *, #158, .F. ) ;
#172 = ORIENTED_EDGE ( 'NONE', *, *, #162, .F. ) ;
#173 = ORIENTED_EDGE ( 'NONE', *, *, #150, .T. ) ;
#174 = ORIENTED_EDGE ( 'NONE', *, *, #149, .F. ) ;
#175 = ORIENTED_EDGE ( 'NONE', *, *, #158, .T. ) ;
#176 = ORIENTED_EDGE ( 'NONE', *, *, #164, .F. ) ;
#177 = ORIENTED_EDGE ( 'NONE', *, *, #162, .T. ) ;
#178 = ORIENTED_EDGE ( 'NONE', *, *, #145, .T. ) ;
#179 = ORIENTED_EDGE ( 'NONE', *, *, #164, .T. ) ;
#180 = ORIENTED_EDGE ( 'NONE', *, *, #157, .T. ) ;
#181 = VERTEX_POINT ( 'NONE', #86 ) ;
#182 = VERTEX_POINT ( 'NONE', #11 ) ;
#183 = VERTEX_POINT ( 'NONE', #14 ) ;
#184 = VERTEX_POINT ( 'NONE', #40 ) ;
#185 = VERTEX_POINT ( 'NONE', #13 ) ;
#186 = VERTEX_POINT ( 'NONE', #84 ) ;
#187 = VERTEX_POINT ( 'NONE', #7 ) ;
#188 = FACE_OUTER_BOUND ( 'NONE', #131, .T. ) ;
#189 = FACE_OUTER_BOUND ( 'NONE', #137, .T. ) ;
#190 = LINE ( 'NONE', #50, #195 ) ;
#191 = FACE_OUTER_BOUND ( 'NONE', #130, .T. ) ;
#192 = FACE_OUTER_BOUND ( 'NONE', #132, .T. ) ;
#193 = FACE_OUTER_BOUND ( 'NONE', #134, .T. ) ;
#194 = LINE ( 'NONE', #49, #198 ) ;
#195 = VECTOR ( 'NONE', #9, 1000.000000000000000 ) ;
#196 = LINE ( 'NONE', #48, #200 ) ;
#197 = LINE ( 'NONE', #54, #202 ) ;
#198 = VECTOR ( 'NONE', #53, 1000.000000000000000 ) ;
#199 = LINE ( 'NONE', #52, #206 ) ;
#200 = VECTOR ( 'NONE', #51, 1000.000000000000000 ) ;
#201 = LINE ( 'NONE', #34, #204 ) ;
#202 = VECTOR ( 'NONE', #32, 1000.000000000000000 ) ;
#203 = LINE ( 'NONE', #33, #208 ) ;
#204 = VECTOR ( 'NONE', #56, 1000.000000000000000 ) ;
#205 = LINE ( 'NONE', #37, #214 ) ;
#206 = VECTOR ( 'NONE', #55, 1000.000000000000000 ) ;
#207 = LINE ( 'NONE', #65, #210 ) ;
#208 = VECTOR ( 'NONE', #28, 1000.000000000000000 ) ;
#209 = LINE ( 'NONE', #83, #212 ) ;
#210 = VECTOR ( 'NONE', #82, 1000.000000000000000 ) ;
#211 = ORGANIZATION ( 'UNSPECIFIED', 'UNSPECIFIED', '' ) ;
#212 = VECTOR ( 'NONE', #67, 1000.000000000000000 ) ;
#213 = LINE ( 'NONE', #87, #216 ) ;
#214 = VECTOR ( 'NONE', #66, 1000.000000000000000 ) ;
#215 = LINE ( 'NONE', #44, #218 ) ;
#216 = VECTOR ( 'NONE', #72, 1000.000000000000000 ) ;
#217 = PERSON_AND_ORGANIZATION ( #127, #211 ) ;
#218 = VECTOR ( 'NONE', #41, 1000.000000000000000 ) ;
#219 = SHAPE_DEFINITION_REPRESENTATION ( #5, #2 ) ;
#220 = PERSON_AND_ORGANIZATION ( #127, #211 ) ;
#221 = APPROVAL_PERSON_ORGANIZATION ( #220, #223, #42 ) ;
#222 = PRODUCT_DEFINITION_FORMATION_WITH_SPECIFIED_SOURCE ( 'ANY', '', #126, .NOT_KNOWN. ) ;
#223 = APPROVAL ( #70, 'UNSPECIFIED' ) ;
#224 = PRODUCT_RELATED_PRODUCT_CATEGORY ( 'detail', '', ( #126 ) ) ;
#225 = CC_DESIGN_PERSON_AND_ORGANIZATION_ASSIGNMENT ( #106, #62, ( #222 ) ) ;
#226 = APPROVAL ( #30, 'UNSPECIFIED' ) ;
#227 = CC_DESIGN_PERSON_AND_ORGANIZATION_ASSIGNMENT ( #94, #10, ( #144 ) ) ;
#228 = CC_DESIGN_DATE_AND_TIME_ASSIGNMENT ( #98, #22, ( #144 ) ) ;
#229 = CC_DESIGN_DATE_AND_TIME_ASSIGNMENT ( #112, #38, ( #232 ) ) ;
#230 = CC_DESIGN_APPROVAL ( #226, ( #232 ) ) ;
#231 = CC_DESIGN_APPROVAL ( #236, ( #222 ) ) ;
#232 = SECURITY_CLASSIFICATION ( '', '', #27 ) ;
#233 = CC_DESIGN_APPROVAL ( #223, ( #144 ) ) ;
#234 = CC_DESIGN_PERSON_AND_ORGANIZATION_ASSIGNMENT ( #108, #39, ( #232 ) ) ;
#235 = CC_DESIGN_SECURITY_CLASSIFICATION ( #232, ( #222 ) ) ;
#236 = APPROVAL ( #81, 'UNSPECIFIED' ) ;
#237 = CC_DESIGN_PERSON_AND_ORGANIZATION_ASSIGNMENT ( #107, #71, ( #222 ) ) ;
ENDSEC;
END-ISO-10303-21;
