ISO-10303-21;
HEADER;
FILE_DESCRIPTION (( 'STEP AP203' ),
    '1' );
FILE_NAME ('Äåðæàòåëü êàáåëÿ TRC_37565.STEP',
    '2012-11-12T08:08:24',
    ( 'Àñååâ' ),
    ( '' ),
    'SwSTEP 2.0',
    'SolidWorks 2012',
    '' );
FILE_SCHEMA (( 'CONFIG_CONTROL_DESIGN' ));
ENDSEC;

DATA;
#1 = PLANE ( 'NONE',  #231 ) ;
#2 = CARTESIAN_POINT ( 'NONE',  ( 149.2500000000000000, -3.035766082959412400E-015, 25.00000000000000000 ) ) ;
#3 = DIRECTION ( 'NONE',  ( 1.000000000000000000, -1.210508963683719600E-016, 0.0000000000000000000 ) ) ;
#4 = DIRECTION ( 'NONE',  ( -1.210508963683719600E-016, -1.000000000000000000, 0.0000000000000000000 ) ) ;
#5 = CARTESIAN_POINT ( 'NONE',  ( 149.2500000000000000, 1.499999999999996900, 25.00000000000000000 ) ) ;
#6 = PLANE ( 'NONE',  #230 ) ;
#7 = DIRECTION ( 'NONE',  ( 0.0000000000000000000, 0.0000000000000000000, 1.000000000000000000 ) ) ;
#8 = DIRECTION ( 'NONE',  ( -1.000000000000000000, 0.0000000000000000000, 0.0000000000000000000 ) ) ;
#9 = CARTESIAN_POINT ( 'NONE',  ( -124.1715728752538600, 1.500000000000000000, 25.00000000000000000 ) ) ;
#10 = PLANE ( 'NONE',  #236 ) ;
#11 = DIRECTION ( 'NONE',  ( 1.000000000000000000, 0.0000000000000000000, 0.0000000000000000000 ) ) ;
#12 = DIRECTION ( 'NONE',  ( -0.0000000000000000000, 0.0000000000000000000, 1.000000000000000000 ) ) ;
#13 = CARTESIAN_POINT ( 'NONE',  ( 124.1715728752538600, 0.0000000000000000000, 25.00000000000000000 ) ) ;
#14 = PLANE ( 'NONE',  #237 ) ;
#15 = DIRECTION ( 'NONE',  ( -0.0000000000000000000, 0.0000000000000000000, -1.000000000000000000 ) ) ;
#16 = DIRECTION ( 'NONE',  ( 1.000000000000000000, 0.0000000000000000000, -0.0000000000000000000 ) ) ;
#17 = CARTESIAN_POINT ( 'NONE',  ( -149.2500000000000000, 0.0000000000000000000, 25.00000000000000000 ) ) ;
#18 = PLANE ( 'NONE',  #229 ) ;
#19 = DIRECTION ( 'NONE',  ( 1.000000000000000000, 0.0000000000000000000, 0.0000000000000000000 ) ) ;
#20 = DIRECTION ( 'NONE',  ( -0.0000000000000000000, 0.0000000000000000000, 1.000000000000000000 ) ) ;
#21 = CARTESIAN_POINT ( 'NONE',  ( 0.0000000000000000000, 0.0000000000000000000, 25.00000000000000000 ) ) ;
#22 = CARTESIAN_POINT ( 'NONE',  ( 0.0000000000000000000, 0.0000000000000000000, 0.0000000000000000000 ) ) ;
#23 = CARTESIAN_POINT ( 'NONE',  ( -149.2500000000000000, 0.0000000000000000000, 0.0000000000000000000 ) ) ;
#24 = CARTESIAN_POINT ( 'NONE',  ( -149.2500000000000000, 1.500000000000000000, 0.0000000000000000000 ) ) ;
#25 = CARTESIAN_POINT ( 'NONE',  ( -149.2500000000000000, 0.0000000000000000000, 25.00000000000000000 ) ) ;
#26 = CARTESIAN_POINT ( 'NONE',  ( 149.2500000000000000, 1.499999999999996900, 25.00000000000000000 ) ) ;
#27 = PLANE ( 'NONE',  #224 ) ;
#28 = CARTESIAN_POINT ( 'NONE',  ( -149.2500000000000000, 1.500000000000000000, 25.00000000000000000 ) ) ;
#29 = CARTESIAN_POINT ( 'NONE',  ( 149.2500000000000000, 1.499999999999996900, 0.0000000000000000000 ) ) ;
#30 = CARTESIAN_POINT ( 'NONE',  ( 149.2500000000000000, 1.499999999999996900, 25.00000000000000000 ) ) ;
#31 = UNCERTAINTY_MEASURE_WITH_UNIT (LENGTH_MEASURE( 1.000000000000000100E-005 ), #123, 'distance_accuracy_value', 'NONE');
#32 = ADVANCED_BREP_SHAPE_REPRESENTATION ( '-õ¨öðªõû¹ úðñõû  TRC_37565', ( #33, #223 ), #233 ) ;
#33 = MANIFOLD_SOLID_BREP ( 'Âûòÿíóòü-Òîíêîñòåííûé1', #52 ) ;
#34 = DESIGN_CONTEXT ( 'detailed design', #139, 'design' ) ;
#35 = PRODUCT_DEFINITION_SHAPE ( 'NONE', 'NONE',  #235 ) ;
#36 = EDGE_LOOP ( 'NONE', ( #55, #54, #53, #50 ) ) ;
#37 = EDGE_LOOP ( 'NONE', ( #41, #39, #38, #61 ) ) ;
#38 = ORIENTED_EDGE ( 'NONE', *, *, #219, .F. ) ;
#39 = ORIENTED_EDGE ( 'NONE', *, *, #227, .F. ) ;
#40 = ORIENTED_EDGE ( 'NONE', *, *, #216, .T. ) ;
#41 = ORIENTED_EDGE ( 'NONE', *, *, #226, .T. ) ;
#42 = ORIENTED_EDGE ( 'NONE', *, *, #220, .T. ) ;
#43 = ORIENTED_EDGE ( 'NONE', *, *, #219, .T. ) ;
#44 = ORIENTED_EDGE ( 'NONE', *, *, #222, .T. ) ;
#45 = ORIENTED_EDGE ( 'NONE', *, *, #226, .F. ) ;
#46 = ORIENTED_EDGE ( 'NONE', *, *, #214, .T. ) ;
#47 = ORIENTED_EDGE ( 'NONE', *, *, #213, .F. ) ;
#48 = ORIENTED_EDGE ( 'NONE', *, *, #215, .T. ) ;
#49 = ORIENTED_EDGE ( 'NONE', *, *, #222, .F. ) ;
#50 = ORIENTED_EDGE ( 'NONE', *, *, #217, .T. ) ;
#51 = ORIENTED_EDGE ( 'NONE', *, *, #218, .F. ) ;
#52 = CLOSED_SHELL ( 'NONE', ( #105, #106, #103, #107, #102, #104 ) ) ;
#53 = ORIENTED_EDGE ( 'NONE', *, *, #221, .T. ) ;
#54 = ORIENTED_EDGE ( 'NONE', *, *, #220, .F. ) ;
#55 = ORIENTED_EDGE ( 'NONE', *, *, #216, .F. ) ;
#56 = ORIENTED_EDGE ( 'NONE', *, *, #227, .T. ) ;
#57 = ORIENTED_EDGE ( 'NONE', *, *, #217, .F. ) ;
#58 = ORIENTED_EDGE ( 'NONE', *, *, #214, .F. ) ;
#59 = ORIENTED_EDGE ( 'NONE', *, *, #221, .F. ) ;
#60 = ORIENTED_EDGE ( 'NONE', *, *, #215, .F. ) ;
#61 = ORIENTED_EDGE ( 'NONE', *, *, #213, .T. ) ;
#62 = ORIENTED_EDGE ( 'NONE', *, *, #218, .T. ) ;
#63 = VERTEX_POINT ( 'NONE', #24 ) ;
#64 = VERTEX_POINT ( 'NONE', #23 ) ;
#65 = VERTEX_POINT ( 'NONE', #25 ) ;
#66 = VERTEX_POINT ( 'NONE', #30 ) ;
#67 = VERTEX_POINT ( 'NONE', #28 ) ;
#68 = VERTEX_POINT ( 'NONE', #2 ) ;
#69 = VERTEX_POINT ( 'NONE', #29 ) ;
#70 = FACE_OUTER_BOUND ( 'NONE', #161, .T. ) ;
#71 = FACE_OUTER_BOUND ( 'NONE', #37, .T. ) ;
#72 = FACE_OUTER_BOUND ( 'NONE', #36, .T. ) ;
#73 = FACE_OUTER_BOUND ( 'NONE', #165, .T. ) ;
#74 = FACE_OUTER_BOUND ( 'NONE', #163, .T. ) ;
#75 = LINE ( 'NONE', #5, #80 ) ;
#76 = FACE_OUTER_BOUND ( 'NONE', #164, .T. ) ;
#77 = VECTOR ( 'NONE', #128, 1000.000000000000000 ) ;
#78 = LINE ( 'NONE', #152, #77 ) ;
#79 = LINE ( 'NONE', #145, #83 ) ;
#80 = VECTOR ( 'NONE', #140, 1000.000000000000000 ) ;
#81 = LINE ( 'NONE', #141, #85 ) ;
#82 = LINE ( 'NONE', #125, #89 ) ;
#83 = VECTOR ( 'NONE', #124, 1000.000000000000000 ) ;
#84 = LINE ( 'NONE', #108, #87 ) ;
#85 = VECTOR ( 'NONE', #114, 1000.000000000000000 ) ;
#86 = LINE ( 'NONE', #115, #90 ) ;
#87 = VECTOR ( 'NONE', #132, 1000.000000000000000 ) ;
#88 = LINE ( 'NONE', #131, #92 ) ;
#89 = VECTOR ( 'NONE', #113, 1000.000000000000000 ) ;
#90 = VECTOR ( 'NONE', #134, 1000.000000000000000 ) ;
#91 = LINE ( 'NONE', #109, #94 ) ;
#92 = VECTOR ( 'NONE', #130, 1000.000000000000000 ) ;
#93 = LINE ( 'NONE', #117, #96 ) ;
#94 = VECTOR ( 'NONE', #151, 1000.000000000000000 ) ;
#95 = LINE ( 'NONE', #157, #98 ) ;
#96 = VECTOR ( 'NONE', #116, 1000.000000000000000 ) ;
#97 = LINE ( 'NONE', #119, #100 ) ;
#98 = VECTOR ( 'NONE', #156, 1000.000000000000000 ) ;
#99 = ORGANIZATION ( 'UNSPECIFIED', 'UNSPECIFIED', '' ) ;
#100 = VECTOR ( 'NONE', #118, 1000.000000000000000 ) ;
#101 = SHAPE_DEFINITION_REPRESENTATION ( #35, #32 ) ;
#102 = ADVANCED_FACE ( 'NONE', ( #76 ), #27, .T. ) ;
#103 = ADVANCED_FACE ( 'NONE', ( #70 ), #18, .T. ) ;
#104 = ADVANCED_FACE ( 'NONE', ( #74 ), #14, .F. ) ;
#105 = ADVANCED_FACE ( 'NONE', ( #73 ), #10, .T. ) ;
#106 = ADVANCED_FACE ( 'NONE', ( #72 ), #6, .T. ) ;
#107 = ADVANCED_FACE ( 'NONE', ( #71 ), #1, .F. ) ;
#108 = CARTESIAN_POINT ( 'NONE',  ( -149.2500000000000000, 0.0000000000000000000, 25.00000000000000000 ) ) ;
#109 = CARTESIAN_POINT ( 'NONE',  ( -124.1715728752538600, 0.0000000000000000000, 25.00000000000000000 ) ) ;
#110 = PERSON_AND_ORGANIZATION_ROLE ( 'design_owner' ) ;
#111 = CARTESIAN_POINT ( 'NONE',  ( 149.2500000000000000, -3.035766082959412400E-015, 0.0000000000000000000 ) ) ;
#112 = DIRECTION ( 'NONE',  ( 0.0000000000000000000, -1.000000000000000000, 0.0000000000000000000 ) ) ;
#113 = DIRECTION ( 'NONE',  ( 0.0000000000000000000, 1.000000000000000000, 0.0000000000000000000 ) ) ;
#114 = DIRECTION ( 'NONE',  ( -1.000000000000000000, 1.210508963683719600E-016, -0.0000000000000000000 ) ) ;
#115 = CARTESIAN_POINT ( 'NONE',  ( -124.1715728752538600, 1.500000000000000000, 25.00000000000000000 ) ) ;
#116 = DIRECTION ( 'NONE',  ( 0.0000000000000000000, -1.000000000000000000, 0.0000000000000000000 ) ) ;
#117 = CARTESIAN_POINT ( 'NONE',  ( 149.2500000000000000, 1.499999999999996900, 0.0000000000000000000 ) ) ;
#118 = DIRECTION ( 'NONE',  ( -0.0000000000000000000, -0.0000000000000000000, -1.000000000000000000 ) ) ;
#119 = CARTESIAN_POINT ( 'NONE',  ( -149.2500000000000000, 1.500000000000000000, 25.00000000000000000 ) ) ;
#120 = MECHANICAL_CONTEXT ( 'NONE', #144, 'mechanical' ) ;
#121 = APPLICATION_PROTOCOL_DEFINITION ( 'international standard', 'config_control_design', 1994, #144 ) ;
#122 = DIRECTION ( 'NONE',  ( 0.0000000000000000000, 0.0000000000000000000, 1.000000000000000000 ) ) ;
#123 =( LENGTH_UNIT ( ) NAMED_UNIT ( * ) SI_UNIT ( .MILLI., .METRE. ) );
#124 = DIRECTION ( 'NONE',  ( 0.0000000000000000000, 1.000000000000000000, 0.0000000000000000000 ) ) ;
#125 = CARTESIAN_POINT ( 'NONE',  ( -149.2500000000000000, 0.0000000000000000000, 25.00000000000000000 ) ) ;
#126 = DATE_TIME_ROLE ( 'creation_date' ) ;
#127 = APPROVAL_ROLE ( '' ) ;
#128 = DIRECTION ( 'NONE',  ( 0.0000000000000000000, -1.000000000000000000, 0.0000000000000000000 ) ) ;
#129 = APPROVAL_STATUS ( 'not_yet_approved' ) ;
#130 = DIRECTION ( 'NONE',  ( -0.0000000000000000000, -0.0000000000000000000, -1.000000000000000000 ) ) ;
#131 = CARTESIAN_POINT ( 'NONE',  ( 149.2500000000000000, -3.035766082959412400E-015, 25.00000000000000000 ) ) ;
#132 = DIRECTION ( 'NONE',  ( -0.0000000000000000000, -0.0000000000000000000, -1.000000000000000000 ) ) ;
#133 = DIRECTION ( 'NONE',  ( 0.0000000000000000000, 0.0000000000000000000, -1.000000000000000000 ) ) ;
#134 = DIRECTION ( 'NONE',  ( -1.000000000000000000, 0.0000000000000000000, -0.0000000000000000000 ) ) ;
#135 = APPROVAL_STATUS ( 'not_yet_approved' ) ;
#136 = DATE_TIME_ROLE ( 'classification_date' ) ;
#137 = PERSON_AND_ORGANIZATION_ROLE ( 'classification_officer' ) ;
#138 = APPROVAL_STATUS ( 'not_yet_approved' ) ;
#139 = APPLICATION_CONTEXT ( 'configuration controlled 3d designs of mechanical parts and assemblies' ) ;
#140 = DIRECTION ( 'NONE',  ( -0.0000000000000000000, -0.0000000000000000000, -1.000000000000000000 ) ) ;
#141 = CARTESIAN_POINT ( 'NONE',  ( 124.1715728752538600, 0.0000000000000000000, 0.0000000000000000000 ) ) ;
#142 = APPLICATION_PROTOCOL_DEFINITION ( 'international standard', 'config_control_design', 1994, #139 ) ;
#143 = PERSON_AND_ORGANIZATION_ROLE ( 'creator' ) ;
#144 = APPLICATION_CONTEXT ( 'configuration controlled 3d designs of mechanical parts and assemblies' ) ;
#145 = CARTESIAN_POINT ( 'NONE',  ( -149.2500000000000000, 0.0000000000000000000, 0.0000000000000000000 ) ) ;
#146 = APPROVAL_ROLE ( '' ) ;
#147 =( NAMED_UNIT ( * ) SI_UNIT ( $, .STERADIAN. ) SOLID_ANGLE_UNIT ( ) );
#148 = APPROVAL_ROLE ( '' ) ;
#149 = PERSON_AND_ORGANIZATION_ROLE ( 'creator' ) ;
#150 =( NAMED_UNIT ( * ) PLANE_ANGLE_UNIT ( ) SI_UNIT ( $, .RADIAN. ) );
#151 = DIRECTION ( 'NONE',  ( -1.000000000000000000, 0.0000000000000000000, 0.0000000000000000000 ) ) ;
#152 = CARTESIAN_POINT ( 'NONE',  ( 149.2500000000000000, 1.499999999999996900, 25.00000000000000000 ) ) ;
#153 = DIRECTION ( 'NONE',  ( 1.000000000000000000, 0.0000000000000000000, 0.0000000000000000000 ) ) ;
#154 = SECURITY_CLASSIFICATION_LEVEL ( 'unclassified' ) ;
#155 = PERSON_AND_ORGANIZATION_ROLE ( 'design_supplier' ) ;
#156 = DIRECTION ( 'NONE',  ( -1.000000000000000000, -0.0000000000000000000, 0.0000000000000000000 ) ) ;
#157 = CARTESIAN_POINT ( 'NONE',  ( -124.1715728752538600, 1.500000000000000000, 0.0000000000000000000 ) ) ;
#158 = CARTESIAN_POINT ( 'NONE',  ( 0.0000000000000000000, 0.0000000000000000000, 0.0000000000000000000 ) ) ;
#159 = PERSON ( 'UNSPECIFIED', 'UNSPECIFIED', 'UNSPECIFIED', ('UNSPECIFIED'), ('UNSPECIFIED'), ('UNSPECIFIED') ) ;
#160 = PRODUCT ( 'Äåðæàòåëü êàáåëÿ TRC_37565', 'Äåðæàòåëü êàáåëÿ TRC_37565', '', ( #120 ) ) ;
#161 = EDGE_LOOP ( 'NONE', ( #49, #47, #46, #42 ) ) ;
#162 = VERTEX_POINT ( 'NONE', #111 ) ;
#163 = EDGE_LOOP ( 'NONE', ( #48, #45, #44, #40 ) ) ;
#164 = EDGE_LOOP ( 'NONE', ( #43, #51, #59, #58 ) ) ;
#165 = EDGE_LOOP ( 'NONE', ( #60, #57, #62, #56 ) ) ;
#166 = PRODUCT_DEFINITION_FORMATION_WITH_SPECIFIED_SOURCE ( 'ANY', '', #160, .NOT_KNOWN. ) ;
#167 = PRODUCT_RELATED_PRODUCT_CATEGORY ( 'detail', '', ( #160 ) ) ;
#168 = APPROVAL ( #129, 'UNSPECIFIED' ) ;
#169 = CC_DESIGN_PERSON_AND_ORGANIZATION_ASSIGNMENT ( #199, #143, ( #166 ) ) ;
#170 = CC_DESIGN_DATE_AND_TIME_ASSIGNMENT ( #205, #136, ( #172 ) ) ;
#171 = CC_DESIGN_SECURITY_CLASSIFICATION ( #172, ( #166 ) ) ;
#172 = SECURITY_CLASSIFICATION ( '', '', #154 ) ;
#173 = APPROVAL ( #135, 'UNSPECIFIED' ) ;
#174 = CC_DESIGN_APPROVAL ( #168, ( #166 ) ) ;
#175 = CC_DESIGN_PERSON_AND_ORGANIZATION_ASSIGNMENT ( #201, #137, ( #172 ) ) ;
#176 = CC_DESIGN_PERSON_AND_ORGANIZATION_ASSIGNMENT ( #200, #155, ( #166 ) ) ;
#177 = CC_DESIGN_APPROVAL ( #173, ( #172 ) ) ;
#178 = CC_DESIGN_DATE_AND_TIME_ASSIGNMENT ( #191, #126, ( #235 ) ) ;
#179 = PERSON_AND_ORGANIZATION ( #159, #99 ) ;
#180 = PERSON_AND_ORGANIZATION ( #159, #99 ) ;
#181 = APPROVAL_PERSON_ORGANIZATION ( #180, #228, #148 ) ;
#182 = COORDINATED_UNIVERSAL_TIME_OFFSET ( 4, 0, .AHEAD. ) ;
#183 = LOCAL_TIME ( 12, 8, 24.00000000000000000, #182 ) ;
#184 = CALENDAR_DATE ( 2012, 12, 11 ) ;
#185 = DATE_AND_TIME ( #184, #183 ) ;
#186 = APPROVAL_DATE_TIME ( #185, #228 ) ;
#187 = PERSON_AND_ORGANIZATION ( #159, #99 ) ;
#188 = COORDINATED_UNIVERSAL_TIME_OFFSET ( 4, 0, .AHEAD. ) ;
#189 = LOCAL_TIME ( 12, 8, 24.00000000000000000, #188 ) ;
#190 = CALENDAR_DATE ( 2012, 12, 11 ) ;
#191 = DATE_AND_TIME ( #190, #189 ) ;
#192 = PERSON_AND_ORGANIZATION ( #159, #99 ) ;
#193 = APPROVAL_PERSON_ORGANIZATION ( #192, #168, #127 ) ;
#194 = COORDINATED_UNIVERSAL_TIME_OFFSET ( 4, 0, .AHEAD. ) ;
#195 = LOCAL_TIME ( 12, 8, 24.00000000000000000, #194 ) ;
#196 = CALENDAR_DATE ( 2012, 12, 11 ) ;
#197 = DATE_AND_TIME ( #196, #195 ) ;
#198 = APPROVAL_DATE_TIME ( #197, #168 ) ;
#199 = PERSON_AND_ORGANIZATION ( #159, #99 ) ;
#200 = PERSON_AND_ORGANIZATION ( #159, #99 ) ;
#201 = PERSON_AND_ORGANIZATION ( #159, #99 ) ;
#202 = COORDINATED_UNIVERSAL_TIME_OFFSET ( 4, 0, .AHEAD. ) ;
#203 = LOCAL_TIME ( 12, 8, 24.00000000000000000, #202 ) ;
#204 = CALENDAR_DATE ( 2012, 12, 11 ) ;
#205 = DATE_AND_TIME ( #204, #203 ) ;
#206 = PERSON_AND_ORGANIZATION ( #159, #99 ) ;
#207 = APPROVAL_PERSON_ORGANIZATION ( #206, #173, #146 ) ;
#208 = COORDINATED_UNIVERSAL_TIME_OFFSET ( 4, 0, .AHEAD. ) ;
#209 = LOCAL_TIME ( 12, 8, 24.00000000000000000, #208 ) ;
#210 = CALENDAR_DATE ( 2012, 12, 11 ) ;
#211 = DATE_AND_TIME ( #210, #209 ) ;
#212 = APPROVAL_DATE_TIME ( #211, #173 ) ;
#213 = EDGE_CURVE ( 'NONE', #66, #69, #75, .T. ) ;
#214 = EDGE_CURVE ( 'NONE', #66, #68, #78, .T. ) ;
#215 = EDGE_CURVE ( 'NONE', #64, #63, #79, .T. ) ;
#216 = EDGE_CURVE ( 'NONE', #162, #64, #81, .T. ) ;
#217 = EDGE_CURVE ( 'NONE', #65, #64, #84, .T. ) ;
#218 = EDGE_CURVE ( 'NONE', #65, #67, #82, .T. ) ;
#219 = EDGE_CURVE ( 'NONE', #66, #67, #86, .T. ) ;
#220 = EDGE_CURVE ( 'NONE', #68, #162, #88, .T. ) ;
#221 = EDGE_CURVE ( 'NONE', #68, #65, #91, .T. ) ;
#222 = EDGE_CURVE ( 'NONE', #69, #162, #93, .T. ) ;
#223 = AXIS2_PLACEMENT_3D ( 'NONE', #158, #122, #153 ) ;
#224 = AXIS2_PLACEMENT_3D ( 'NONE', #21, #20, #19 ) ;
#225 = CC_DESIGN_PERSON_AND_ORGANIZATION_ASSIGNMENT ( #179, #110, ( #160 ) ) ;
#226 = EDGE_CURVE ( 'NONE', #69, #63, #95, .T. ) ;
#227 = EDGE_CURVE ( 'NONE', #67, #63, #97, .T. ) ;
#228 = APPROVAL ( #138, 'UNSPECIFIED' ) ;
#229 = AXIS2_PLACEMENT_3D ( 'NONE', #26, #16, #15 ) ;
#230 = AXIS2_PLACEMENT_3D ( 'NONE', #13, #4, #3 ) ;
#231 = AXIS2_PLACEMENT_3D ( 'NONE', #9, #112, #133 ) ;
#232 = CC_DESIGN_APPROVAL ( #228, ( #235 ) ) ;
#233 =( GEOMETRIC_REPRESENTATION_CONTEXT ( 3 ) GLOBAL_UNCERTAINTY_ASSIGNED_CONTEXT ( ( #31 ) ) GLOBAL_UNIT_ASSIGNED_CONTEXT ( ( #123, #150, #147 ) ) REPRESENTATION_CONTEXT ( 'NONE', 'WORKASPACE' ) );
#234 = CC_DESIGN_PERSON_AND_ORGANIZATION_ASSIGNMENT ( #187, #149, ( #235 ) ) ;
#235 = PRODUCT_DEFINITION ( 'UNKNOWN', '', #166, #34 ) ;
#236 = AXIS2_PLACEMENT_3D ( 'NONE', #17, #8, #7 ) ;
#237 = AXIS2_PLACEMENT_3D ( 'NONE', #22, #12, #11 ) ;
ENDSEC;
END-ISO-10303-21;
