  0
SECTION
  2
HEADER
  9
$ACADVER
  1
AC1015
  9
$ACADMAINTVER
 70
     6
  9
$DWGCODEPAGE
  3
ANSI_1252
  9
$INSBASE
 10
0.0
 20
0.0
 30
0.0
  9
$EXTMIN
 10
69.395417
 20
287.976483
 30
-1.0
  9
$EXTMAX
 10
1026.514554
 20
492.804657
 30
0.7
  9
$LIMMIN
 10
0.0
 20
0.0
  9
$LIMMAX
 10
12.0
 20
9.0
  9
$ORTHOMODE
 70
     0
  9
$REGENMODE
 70
     1
  9
$FILLMODE
 70
     1
  9
$QTEXTMODE
 70
     0
  9
$MIRRTEXT
 70
     0
  9
$LTSCALE
 40
5.0
  9
$ATTMODE
 70
     1
  9
$TEXTSIZE
 40
0.2
  9
$TRACEWID
 40
0.05
  9
$TEXTSTYLE
  7
STANDARD
  9
$CLAYER
  8
0
  9
$CELTYPE
  6
ByLayer
  9
$CECOLOR
 62
   256
  9
$CELTSCALE
 40
1.0
  9
$DISPSILH
 70
     0
  9
$DIMSCALE
 40
1.0
  9
$DIMASZ
 40
0.18
  9
$DIMEXO
 40
0.0625
  9
$DIMDLI
 40
0.38
  9
$DIMRND
 40
0.0
  9
$DIMDLE
 40
0.0
  9
$DIMEXE
 40
0.18
  9
$DIMTP
 40
0.0
  9
$DIMTM
 40
0.0
  9
$DIMTXT
 40
0.18
  9
$DIMCEN
 40
0.09
  9
$DIMTSZ
 40
0.0
  9
$DIMTOL
 70
     0
  9
$DIMLIM
 70
     0
  9
$DIMTIH
 70
     1
  9
$DIMTOH
 70
     1
  9
$DIMSE1
 70
     0
  9
$DIMSE2
 70
     0
  9
$DIMTAD
 70
     0
  9
$DIMZIN
 70
     0
  9
$DIMBLK
  1

  9
$DIMASO
 70
     1
  9
$DIMSHO
 70
     1
  9
$DIMPOST
  1

  9
$DIMAPOST
  1

  9
$DIMALT
 70
     0
  9
$DIMALTD
 70
     2
  9
$DIMALTF
 40
25.4
  9
$DIMLFAC
 40
1.0
  9
$DIMTOFL
 70
     0
  9
$DIMTVP
 40
0.0
  9
$DIMTIX
 70
     0
  9
$DIMSOXD
 70
     0
  9
$DIMSAH
 70
     0
  9
$DIMBLK1
  1

  9
$DIMBLK2
  1

  9
$DIMSTYLE
  2
STANDARD
  9
$DIMCLRD
 70
     0
  9
$DIMCLRE
 70
     0
  9
$DIMCLRT
 70
     0
  9
$DIMTFAC
 40
1.0
  9
$DIMGAP
 40
0.09
  9
$DIMJUST
 70
     0
  9
$DIMSD1
 70
     0
  9
$DIMSD2
 70
     0
  9
$DIMTOLJ
 70
     1
  9
$DIMTZIN
 70
     0
  9
$DIMALTZ
 70
     0
  9
$DIMALTTZ
 70
     0
  9
$DIMUPT
 70
     0
  9
$DIMDEC
 70
     4
  9
$DIMTDEC
 70
     4
  9
$DIMALTU
 70
     2
  9
$DIMALTTD
 70
     2
  9
$DIMTXSTY
  7
STANDARD
  9
$DIMAUNIT
 70
     0
  9
$DIMADEC
 70
     0
  9
$DIMALTRND
 40
0.0
  9
$DIMAZIN
 70
     0
  9
$DIMDSEP
 70
     0
  9
$DIMATFIT
 70
     3
  9
$DIMFRAC
 70
     0
  9
$DIMLDRBLK
  1

  9
$DIMLUNIT
 70
     2
  9
$DIMLWD
 70
     0
  9
$DIMLWE
 70
     0
  9
$DIMTMOVE
 70
     0
  9
$LUNITS
 70
     2
  9
$LUPREC
 70
     4
  9
$SKETCHINC
 40
0.1
  9
$FILLETRAD
 40
0.0
  9
$AUNITS
 70
     0
  9
$AUPREC
 70
     0
  9
$MENU
  1
.
  9
$ELEVATION
 40
0.0
  9
$PELEVATION
 40
0.0
  9
$THICKNESS
 40
0.0
  9
$LIMCHECK
 70
     0
  9
$CHAMFERA
 40
0.0
  9
$CHAMFERB
 40
0.0
  9
$CHAMFERC
 40
0.0
  9
$CHAMFERD
 40
0.0
  9
$SKPOLY
 70
     0
  9
$TDCREATE
 40
2453353.758792454
  9
$TDUCREATE
 40
0.000000000
  9
$TDUPDATE
 40
0.000000000
  9
$TDUUPDATE
 40
2447892.958333334
  9
$TDINDWG
 40
78332576.0667047050
  9
$TDUSRTIMER
 40
0.0000000000
  9
$USRTIMER
 70
     1
  9
$ANGBASE
 50
0.0
  9
$ANGDIR
 70
     0
  9
$PDMODE
 70
     0
  9
$PDSIZE
 40
0.0
  9
$PLINEWID
 40
0.0
  9
$SPLFRAME
 70
     0
  9
$SPLINETYPE
 70
     6
  9
$SPLINESEGS
 70
     8
  9
$HANDSEED
  5
12DD
  9
$SURFTAB1
 70
     6
  9
$SURFTAB2
 70
     6
  9
$SURFTYPE
 70
     6
  9
$SURFU
 70
     6
  9
$SURFV
 70
     6
  9
$UCSBASE
  2

  9
$UCSNAME
  2

  9
$UCSORG
 10
0.0
 20
0.0
 30
0.0
  9
$UCSXDIR
 10
1.0
 20
0.0
 30
0.0
  9
$UCSYDIR
 10
0.0
 20
1.0
 30
0.0
  9
$UCSORTHOREF
  2

  9
$UCSORTHOVIEW
 70
     0
  9
$UCSORGTOP
 10
0.0
 20
0.0
 30
0.0
  9
$UCSORGBOTTOM
 10
0.0
 20
0.0
 30
0.0
  9
$UCSORGLEFT
 10
0.0
 20
0.0
 30
0.0
  9
$UCSORGRIGHT
 10
0.0
 20
0.0
 30
0.0
  9
$UCSORGFRONT
 10
0.0
 20
0.0
 30
0.0
  9
$UCSORGBACK
 10
0.0
 20
0.0
 30
0.0
  9
$PUCSBASE
  2

  9
$PUCSNAME
  2

  9
$PUCSORG
 10
0.0
 20
0.0
 30
0.0
  9
$PUCSXDIR
 10
1.0
 20
0.0
 30
0.0
  9
$PUCSYDIR
 10
0.0
 20
1.0
 30
0.0
  9
$PUCSORTHOREF
  2

  9
$PUCSORTHOVIEW
 70
     0
  9
$PUCSORGTOP
 10
0.0
 20
0.0
 30
0.0
  9
$PUCSORGBOTTOM
 10
0.0
 20
0.0
 30
0.0
  9
$PUCSORGLEFT
 10
0.0
 20
0.0
 30
0.0
  9
$PUCSORGRIGHT
 10
0.0
 20
0.0
 30
0.0
  9
$PUCSORGFRONT
 10
0.0
 20
0.0
 30
0.0
  9
$PUCSORGBACK
 10
0.0
 20
0.0
 30
0.0
  9
$USERI1
 70
     0
  9
$USERI2
 70
     0
  9
$USERI3
 70
     0
  9
$USERI4
 70
     0
  9
$USERI5
 70
     0
  9
$USERR1
 40
0.0
  9
$USERR2
 40
0.0
  9
$USERR3
 40
0.0
  9
$USERR4
 40
0.0
  9
$USERR5
 40
0.0
  9
$WORLDVIEW
 70
     1
  9
$SHADEDGE
 70
     3
  9
$SHADEDIF
 70
    70
  9
$TILEMODE
 70
     1
  9
$MAXACTVP
 70
    64
  9
$PINSBASE
 10
0.0
 20
0.0
 30
0.0
  9
$PLIMCHECK
 70
     0
  9
$PEXTMIN
 10
0.0
 20
0.0
 30
0.0
  9
$PEXTMAX
 10
0.0
 20
0.0
 30
0.0
  9
$PLIMMIN
 10
0.0
 20
0.0
  9
$PLIMMAX
 10
0.0
 20
0.0
  9
$UNITMODE
 70
     0
  9
$VISRETAIN
 70
     1
  9
$PLINEGEN
 70
     0
  9
$PSLTSCALE
 70
     1
  9
$TREEDEPTH
 70
  3020
  9
$CMLSTYLE
  2
Standard
  9
$CMLJUST
 70
     0
  9
$CMLSCALE
 40
1.0
  9
$PROXYGRAPHICS
 70
     0
  9
$MEASUREMENT
 70
     0
  9
$CELWEIGHT
370
     0
  9
$ENDCAPS
280
     0
  9
$JOINSTYLE
280
     0
  9
$LWDISPLAY
290
     0
  9
$INSUNITS
 70
     0
  9
$HYPERLINKBASE
  1

  9
$STYLESHEET
  1

  9
$XEDIT
290
     1
  9
$CEPSNTYPE
380
     0
  9
$PSTYLEMODE
290
     1
  9
$FINGERPRINTGUID
  2

  9
$VERSIONGUID
  2

  9
$EXTNAMES
290
     1
  9
$PSVPSCALE
 40
0.0
  0
ENDSEC
  0
SECTION
  2
CLASSES
  0
CLASS
  1
LWPOLYLINE
  2
AcDbPolyline
  3
AutoCAD 2000
 90
        0
280
     0
281
     1
  0
CLASS
  1
IMAGE
  2
AcDbRasterImage
  3
ISM
 90
      127
280
     0
281
     1
  0
CLASS
  1
OLE2FRAME
  2
AcDbOle2Frame
  3
AutoCAD 2000
 90
        0
280
     0
281
     1
  0
CLASS
  1
HATCH
  2
AcDbHatch
  3
AutoCAD 2000
 90
        0
280
     0
281
     1
  0
CLASS
  1
DICTIONARYVAR
  2
AcDbDictionaryVar
  3
AutoCAD 2000
 90
        0
280
     0
281
     0
  0
CLASS
  1
RASTERVARIABLES
  2
AcDbRasterVariables
  3
ISM
 90
        0
280
     0
281
     0
  0
CLASS
  1
IMAGEDEF
  2
AcDbRasterImageDef
  3
ISM
 90
        0
280
     0
281
     0
  0
CLASS
  1
IMAGEDEF_REACTOR
  2
AcDbRasterImageDefReactor
  3
ISM
 90
        1
280
     0
281
     0
  0
CLASS
  1
IDBUFFER
  2
AcDbIdBuffer
  3
AutoCAD 2000
 90
        0
280
     0
281
     0
  0
CLASS
  1
SPATIAL_FILTER
  2
AcDbSpatialFilter
  3
AutoCAD 2000
 90
        0
280
     0
281
     0
  0
CLASS
  1
XRECORD
  2
AcDbXrecord
  3
AutoCAD 2000
 90
        0
280
     0
281
     0
  0
CLASS
  1
SORTENTSTABLE
  2
AcDbSortentsTable
  3
AutoCAD 2000
 90
        0
280
     0
281
     0
  0
CLASS
  1
LAYER_INDEX
  2
AcDbLayerIndex
  3
AutoCAD 2000
 90
        0
280
     0
281
     0
  0
CLASS
  1
SPATIAL_INDEX
  2
AcDbSpatialIndex
  3
AutoCAD 2000
 90
        0
280
     0
281
     0
  0
CLASS
  1
OBJECT_PTR
  2
CAseDLPNTableRecord
  3
"ASE-LPNTableRecord"
 90
        1
280
     0
281
     0
  0
CLASS
  1
LAYOUT
  2
AcDbLayout
  3
AutoCAD 2000
 90
        0
280
     0
281
     0
  0
CLASS
  1
PLOTSETTINGS
  2
AcDbPlotSettings
  3
AutoCAD 2000
 90
        0
280
     0
281
     0
  0
CLASS
  1
ACDBDICTIONARYWDFLT
  2
AcDbDictionaryWithDefault
  3
AutoCAD 2000
 90
        0
280
     0
281
     0
  0
CLASS
  1
ACDBPLACEHOLDER
  2
AcDbPlaceHolder
  3
AutoCAD 2000
 90
        0
280
     0
281
     0
  0
CLASS
  1
VBA_PROJECT
  2
AcDbVbaProject
  3
acadvba
 90
        0
280
     0
281
     0
  0
CLASS
  1
WIPEOUT
  2
AcDbWipeout
  3
WipeOut|AutoCAD Express Tool|expresstools@autodesk.com
 90
      127
280
     0
281
     1
  0
CLASS
  1
WIPEOUTVARIABLES
  2
AcDbWipeoutVariables
  3
WipeOut|AutoCAD Express Tool|expresstools@autodesk.com
 90
        0
280
     0
281
     0
  0
CLASS
  1
RTEXT
  2
RText
  3
RText|AutoCAD Express Tool|expresstools@autodesk.com
 90
        0
280
     0
281
     1
  0
CLASS
  1
ARCALIGNEDTEXT
  2
AcDbArcAlignedText
  3
ATEXT|AutoCAD Express Tool|expresstools@autodesk.com
 90
        0
280
     0
281
     1
  0
ENDSEC
  0
SECTION
  2
TABLES
  0
TABLE
  2
VPORT
  5
1094
100
AcDbSymbolTable
 70
     1
  0
VPORT
  5
10BB
100
AcDbSymbolTableRecord
100
AcDbViewportTableRecord
  2
*ACTIVE
 70
     0
 10
0.0
 20
0.0
 11
1.0
 21
1.0
 12
450.328833
 22
266.374849
 13
0.0
 23
0.0
 14
0.5
 24
0.5
 15
0.5
 25
0.5
 16
0.0
 26
0.0
 36
1.0
 17
0.0
 27
0.0
 37
0.0
 40
620.078606
 41
1.701534
 42
50.0
 43
0.0
 44
0.0
 50
0.0
 51
0.0
 71
    16
 72
  1000
 73
     1
 74
     3
 75
     0
 76
     0
 77
     0
 78
     0
281
     0
 65
     0
110
0.0
120
0.0
130
0.0
111
1.0
121
0.0
131
0.0
112
0.0
122
1.0
132
0.0
345
0
346
0
 79
     0
146
0.0
  0
ENDTAB
  0
TABLE
  2
LTYPE
  5
1091
100
AcDbSymbolTable
 70
     6
  0
LTYPE
  5
109A
100
AcDbSymbolTableRecord
100
AcDbLinetypeTableRecord
  2
ByBlock
 70
    64
  3

 72
    65
 73
     0
 40
0.0
  0
LTYPE
  5
109B
100
AcDbSymbolTableRecord
100
AcDbLinetypeTableRecord
  2
ByLayer
 70
    64
  3

 72
    65
 73
     0
 40
0.0
  0
LTYPE
  5
109C
100
AcDbSymbolTableRecord
100
AcDbLinetypeTableRecord
  2
CONTINUOUS
 70
     0
  3
Solid line
 72
    65
 73
     0
 40
0.0
  0
LTYPE
  5
109D
100
AcDbSymbolTableRecord
100
AcDbLinetypeTableRecord
  2
CENTER
 70
     0
  3
____ _ ____ _ ____ _ ____ _ ____ _ ____ _ ____
 72
    65
 73
     4
 40
0.6
 49
0.375
 74
     0
 49
-0.075
 74
     0
 49
0.075
 74
     0
 49
-0.075
 74
     0
  0
LTYPE
  5
109E
100
AcDbSymbolTableRecord
100
AcDbLinetypeTableRecord
  2
ACAD_ISO02W100
 70
     0
  3
ISO Strichlinie __ __ __ __ __ __ __ __ __ __ _
 72
    65
 73
     2
 40
15.0
 49
12.0
 74
     0
 49
-3.0
 74
     0
  0
LTYPE
  5
109F
100
AcDbSymbolTableRecord
100
AcDbLinetypeTableRecord
  2
DASHED
 70
     0
  3
_ _ _ _ _ _ _ _ _ _ _ _ _ _ _ _ _ _ _ _ _ _ _ _
 72
    65
 73
     2
 40
0.375
 49
0.25
 74
     0
 49
-0.125
 74
     0
  0
ENDTAB
  0
TABLE
  2
LAYER
  5
108F
100
AcDbSymbolTable
 70
     8
  0
LAYER
  5
10A0
100
AcDbSymbolTableRecord
100
AcDbLayerTableRecord
  2
0
 70
     0
 62
     7
  6
CONTINUOUS
290
     1
370
    -3
390
0
  0
LAYER
  5
10A1
100
AcDbSymbolTableRecord
100
AcDbLayerTableRecord
  2
90000_FRAME
 70
     0
 62
     7
  6
CONTINUOUS
290
     1
370
    -3
390
0
  0
LAYER
  5
10A2
100
AcDbSymbolTableRecord
100
AcDbLayerTableRecord
  2
91000_TIP
 70
     0
 62
     7
  6
CONTINUOUS
290
     1
370
    -3
390
0
  0
LAYER
  5
10A3
100
AcDbSymbolTableRecord
100
AcDbLayerTableRecord
  2
10000_FRONT
 70
     0
 62
     7
  6
CONTINUOUS
290
     1
370
    -3
390
0
  0
LAYER
  5
10A4
100
AcDbSymbolTableRecord
100
AcDbLayerTableRecord
  2
11000_LEFT
 70
     0
 62
     7
  6
CONTINUOUS
290
     1
370
    -3
390
0
  0
LAYER
  5
10A7
100
AcDbSymbolTableRecord
100
AcDbLayerTableRecord
  2
DEFPOINTS
 70
     0
 62
     7
  6
CONTINUOUS
290
     0
370
    -3
390
0
  0
LAYER
  5
10A8
100
AcDbSymbolTableRecord
100
AcDbLayerTableRecord
  2
10100_FRONT_DIM
 70
     0
 62
     7
  6
CONTINUOUS
290
     1
370
    -3
390
0
  0
LAYER
  5
10A9
100
AcDbSymbolTableRecord
100
AcDbLayerTableRecord
  2
11100_LEFT_DIM
 70
     0
 62
     7
  6
CONTINUOUS
290
     1
370
    -3
390
0
  0
ENDTAB
  0
TABLE
  2
STYLE
  5
1090
100
AcDbSymbolTable
 70
     2
  0
STYLE
  5
10C0
100
AcDbSymbolTableRecord
100
AcDbTextStyleTableRecord
  2
STANDARD
 70
     0
 40
0.0
 41
1.0
 50
0.0
 71
     0
 42
0.2
  3
txt.shx
  4

  0
STYLE
  5
1260
100
AcDbSymbolTableRecord
100
AcDbTextStyleTableRecord
  2
TFONT1
 70
     0
 40
0.0
 41
1.0
 50
0.0
 71
     0
 42
0.2
  3
TXT.SHX
  4

  0
ENDTAB
  0
TABLE
  2
VIEW
  5
1092
100
AcDbSymbolTable
 70
     0
  0
ENDTAB
  0
TABLE
  2
UCS
  5
1093
100
AcDbSymbolTable
 70
     0
  0
ENDTAB
  0
TABLE
  2
APPID
  5
1095
100
AcDbSymbolTable
 70
     4
  0
APPID
  5
10BC
100
AcDbSymbolTableRecord
100
AcDbRegAppTableRecord
  2
ACAD
 70
     0
  0
APPID
  5
10BD
100
AcDbSymbolTableRecord
100
AcDbRegAppTableRecord
  2
AUSTER_ANSICHT
 70
     0
  0
APPID
  5
10BE
100
AcDbSymbolTableRecord
100
AcDbRegAppTableRecord
  2
AUSTER_FOLIE
 70
     0
  0
APPID
  5
10BF
100
AcDbSymbolTableRecord
100
AcDbRegAppTableRecord
  2
ACAECLAYERSTANDARD
 70
     0
  0
ENDTAB
  0
TABLE
  2
DIMSTYLE
  5
1096
100
AcDbSymbolTable
 70
     3
100
AcDbDimStyleTable
 71
     0
  0
DIMSTYLE
105
10CA
100
AcDbSymbolTableRecord
100
AcDbDimStyleTableRecord
  2
STANDARD
 70
     0
  3

  4

 40
1.0
 41
0.18
 42
0.0625
 43
0.38
 44
0.18
 45
0.0
 46
0.0
 47
0.0
 48
0.0
 71
     0
 72
     0
 73
     1
 74
     1
 75
     0
 76
     0
 77
     0
 78
     0
 79
     0
140
0.18
141
0.09
142
0.0
143
25.4
144
1.0
145
0.0
146
1.0
147
0.09
148
0.0
170
     0
171
     2
172
     0
173
     0
174
     0
175
     0
176
     0
177
     0
178
     0
179
     0
271
     4
272
     4
273
     2
274
     2
275
     0
276
     0
277
     2
278
    46
279
     0
280
     0
281
     0
282
     0
283
     1
284
     0
285
     0
286
     0
288
     0
289
     3
340
10C0
341
0
342
0
343
0
344
0
371
    -2
372
    -2
  0
DIMSTYLE
105
10CB
100
AcDbSymbolTableRecord
100
AcDbDimStyleTableRecord
  2
DSTYLE1
 70
     0
  3

  4

 40
1.0
 41
3.0
 42
0.0
 43
0.38
 44
1.0
 45
0.0
 46
0.0
 47
0.0
 48
0.0
 71
     0
 72
     0
 73
     0
 74
     0
 75
     0
 76
     0
 77
     1
 78
     3
 79
     0
140
2.5
141
0.09
142
0.0
143
0.03937
144
1.0
145
0.0
146
1.0
147
1.0
148
0.0
170
     0
171
     2
172
     0
173
     0
174
     0
175
     0
176
     0
177
     0
178
     0
179
     0
271
     4
272
     4
273
     2
274
     2
275
     0
276
     0
277
     2
278
    46
279
     0
280
     0
281
     0
282
     0
283
     1
284
     0
285
     0
286
     0
288
     0
289
     3
340
10C0
341
0
342
0
343
0
344
0
371
    -2
372
    -2
  0
DIMSTYLE
105
10CC
100
AcDbSymbolTableRecord
100
AcDbDimStyleTableRecord
  2
H035
 70
     0
  3

  4

 40
0.0
 41
3.5
 42
0.0
 43
3.75
 44
2.0
 45
0.0
 46
0.0
 47
0.0
 48
0.0
 71
     0
 72
     0
 73
     0
 74
     0
 75
     0
 76
     0
 77
     1
 78
     8
 79
     0
140
3.5
141
2.5
142
0.0
143
0.039
144
1.0
145
0.0
146
1.0
147
0.5
148
0.0
170
     0
171
     4
172
     1
173
     0
174
     0
175
     0
176
   256
177
     7
178
     7
179
     0
271
     4
272
     4
273
     2
274
     2
275
     0
276
     0
277
     2
278
    46
279
     0
280
     0
281
     0
282
     0
283
     1
284
     0
285
     0
286
     0
288
     0
289
     3
340
10C0
341
0
342
0
343
0
344
0
371
    -2
372
    -2
  0
ENDTAB
  0
TABLE
  2
BLOCK_RECORD
  5
10C5
100
AcDbSymbolTable
 70
     2
  0
BLOCK_RECORD
  5
10C3
100
AcDbSymbolTableRecord
100
AcDbBlockTableRecord
  2
*Model_Space
340
0
  0
BLOCK_RECORD
  5
10C4
100
AcDbSymbolTableRecord
100
AcDbBlockTableRecord
  2
*Paper_Space
340
0
  0
BLOCK_RECORD
  5
10C1
100
AcDbSymbolTableRecord
100
AcDbBlockTableRecord
  2
$MODEL_SPACE
340
0
  0
BLOCK_RECORD
  5
10C2
100
AcDbSymbolTableRecord
100
AcDbBlockTableRecord
  2
$PAPER_SPACE
340
0
  0
ENDTAB
  0
ENDSEC
  0
SECTION
  2
BLOCKS
  0
BLOCK
  5
10C6
100
AcDbEntity
  8
0
390
0
100
AcDbBlockBegin
  2
*Model_Space
 70
     0
 10
0.0
 20
0.0
 30
0.0
  3
*Model_Space
  1

  0
ENDBLK
  5
10C7
100
AcDbEntity
  8
0
390
0
100
AcDbBlockEnd
  0
BLOCK
  5
10C8
100
AcDbEntity
 67
     1
  8
0
390
0
100
AcDbBlockBegin
  2
*Paper_Space
 70
     0
 10
0.0
 20
0.0
 30
0.0
  3
*Paper_Space
  1

  0
ENDBLK
  5
10C9
100
AcDbEntity
 67
     1
  8
0
390
0
100
AcDbBlockEnd
  0
BLOCK
  5
10CD
100
AcDbEntity
  8
0
100
AcDbBlockBegin
  2
$MODEL_SPACE
 70
     0
 10
0.0
 20
0.0
 30
0.0
  3
$MODEL_SPACE
  1

  0
ENDBLK
  5
21
100
AcDbEntity
  8
0
100
AcDbBlockEnd
  0
BLOCK
  5
10CE
100
AcDbEntity
  8
0
100
AcDbBlockBegin
  2
$PAPER_SPACE
 70
     0
 10
0.0
 20
0.0
 30
0.0
  3
$PAPER_SPACE
  1

  0
ENDBLK
  5
76
100
AcDbEntity
  8
0
100
AcDbBlockEnd
  0
ENDSEC
  0
SECTION
  2
ENTITIES
  0
LINE
  5
10D4
100
AcDbEntity
  8
10000_FRONT
370
    50
390
0
  6
CONTINUOUS
 62
     7
100
AcDbLine
 10
287.753717
 20
266.338866
 30
0.0
 11
287.685419
 21
267.57466
 31
0.0
  0
LINE
  5
10D5
100
AcDbEntity
  8
10000_FRONT
370
    50
390
0
  6
CONTINUOUS
 62
     7
100
AcDbLine
 10
287.829117
 20
265.102462
 30
0.0
 11
287.753717
 21
266.338866
 31
0.0
  0
LINE
  5
10D6
100
AcDbEntity
  8
10000_FRONT
370
    50
390
0
  6
CONTINUOUS
 62
     7
100
AcDbLine
 10
293.783266
 20
267.550822
 30
0.0
 11
293.782223
 21
267.566753
 31
0.0
  0
LINE
  5
10D7
100
AcDbEntity
  8
10000_FRONT
370
    50
390
0
  6
CONTINUOUS
 62
     7
100
AcDbLine
 10
287.911716
 20
263.866164
 30
0.0
 11
287.829117
 21
265.102462
 31
0.0
  0
LINE
  5
10D8
100
AcDbEntity
  8
10000_FRONT
370
    50
390
0
  6
CONTINUOUS
 62
     7
100
AcDbLine
 10
293.783266
 20
172.46437
 30
0.0
 11
293.782013
 21
172.482913
 31
0.0
  0
LINE
  5
10D9
100
AcDbEntity
  8
10000_FRONT
370
    50
390
0
  6
CONTINUOUS
 62
     7
100
AcDbLine
 10
288.001619
 20
262.630695
 30
0.0
 11
287.911716
 21
263.866164
 31
0.0
  0
LINE
  5
10DA
100
AcDbEntity
  8
10000_FRONT
370
    50
390
0
  6
CONTINUOUS
 62
     7
100
AcDbLine
 10
288.098926
 20
261.39677
 30
0.0
 11
288.001619
 21
262.630695
 31
0.0
  0
LINE
  5
10DB
100
AcDbEntity
  8
10000_FRONT
370
    50
390
0
  6
CONTINUOUS
 62
     7
100
AcDbLine
 10
288.203789
 20
260.16455
 30
0.0
 11
288.098926
 21
261.39677
 31
0.0
  0
LINE
  5
10DC
100
AcDbEntity
  8
10000_FRONT
370
    50
390
0
  6
CONTINUOUS
 62
     7
100
AcDbLine
 10
288.316635
 20
258.931411
 30
0.0
 11
288.203789
 21
260.16455
 31
0.0
  0
LINE
  5
10DD
100
AcDbEntity
  8
10000_FRONT
370
    50
390
0
  6
CONTINUOUS
 62
     7
100
AcDbLine
 10
288.437681
 20
257.69778
 30
0.0
 11
288.316635
 21
258.931411
 31
0.0
  0
LINE
  5
10DE
100
AcDbEntity
  8
10000_FRONT
370
    50
390
0
  6
CONTINUOUS
 62
     7
100
AcDbLine
 10
288.567087
 20
256.464706
 30
0.0
 11
288.437681
 21
257.69778
 31
0.0
  0
LINE
  5
10DF
100
AcDbEntity
  8
10000_FRONT
370
    50
390
0
  6
CONTINUOUS
 62
     7
100
AcDbLine
 10
288.705015
 20
255.233241
 30
0.0
 11
288.567087
 21
256.464706
 31
0.0
  0
LINE
  5
10E0
100
AcDbEntity
  8
10000_FRONT
370
    50
390
0
  6
CONTINUOUS
 62
     7
100
AcDbLine
 10
288.851627
 20
254.004438
 30
0.0
 11
288.705015
 21
255.233241
 31
0.0
  0
LINE
  5
10E1
100
AcDbEntity
  8
10000_FRONT
370
    50
390
0
  6
CONTINUOUS
 62
     7
100
AcDbLine
 10
293.782223
 20
267.566753
 30
0.0
 11
293.779041
 21
267.583163
 31
0.0
  0
LINE
  5
10E2
100
AcDbEntity
  8
10000_FRONT
370
    50
390
0
  6
CONTINUOUS
 62
     7
100
AcDbLine
 10
293.782013
 20
172.482913
 30
0.0
 11
293.778179
 21
172.502048
 31
0.0
  0
LINE
  5
10E3
100
AcDbEntity
  8
10000_FRONT
370
    50
390
0
  6
CONTINUOUS
 62
     7
100
AcDbLine
 10
293.779041
 20
267.583163
 30
0.0
 11
293.773642
 21
267.59986
 31
0.0
  0
LINE
  5
10E4
100
AcDbEntity
  8
10000_FRONT
370
    50
390
0
  6
CONTINUOUS
 62
     7
100
AcDbLine
 10
293.778179
 20
172.502048
 30
0.0
 11
293.771656
 21
172.521514
 31
0.0
  0
LINE
  5
10E5
100
AcDbEntity
  8
10000_FRONT
370
    50
390
0
  6
CONTINUOUS
 62
     7
100
AcDbLine
 10
293.773642
 20
267.59986
 30
0.0
 11
293.765947
 21
267.616649
 31
0.0
  0
LINE
  5
10E6
100
AcDbEntity
  8
10000_FRONT
370
    50
390
0
  6
CONTINUOUS
 62
     7
100
AcDbLine
 10
293.771656
 20
172.521514
 30
0.0
 11
293.762339
 21
172.541045
 31
0.0
  0
LINE
  5
10E7
100
AcDbEntity
  8
10000_FRONT
370
    50
390
0
  6
CONTINUOUS
 62
     7
100
AcDbLine
 10
293.765947
 20
267.616649
 30
0.0
 11
293.755899
 21
267.633327
 31
0.0
  0
LINE
  5
10E8
100
AcDbEntity
  8
10000_FRONT
370
    50
390
0
  6
CONTINUOUS
 62
     7
100
AcDbLine
 10
293.762339
 20
172.541045
 30
0.0
 11
293.750202
 21
172.560382
 31
0.0
  0
LINE
  5
10E9
100
AcDbEntity
  8
10000_FRONT
370
    50
390
0
  6
CONTINUOUS
 62
     7
100
AcDbLine
 10
293.755899
 20
267.633327
 30
0.0
 11
293.743666
 21
267.649718
 31
0.0
  0
LINE
  5
10EA
100
AcDbEntity
  8
10000_FRONT
370
    50
390
0
  6
CONTINUOUS
 62
     7
100
AcDbLine
 10
293.750202
 20
172.560382
 30
0.0
 11
293.735529
 21
172.579288
 31
0.0
  0
LINE
  5
10EB
100
AcDbEntity
  8
10000_FRONT
370
    50
390
0
  6
CONTINUOUS
 62
     7
100
AcDbLine
 10
293.743666
 20
267.649718
 30
0.0
 11
293.729523
 21
267.665652
 31
0.0
  0
LINE
  5
10EC
100
AcDbEntity
  8
10000_FRONT
370
    50
390
0
  6
CONTINUOUS
 62
     7
100
AcDbLine
 10
293.735529
 20
172.579288
 30
0.0
 11
293.718677
 21
172.597533
 31
0.0
  0
LINE
  5
10ED
100
AcDbEntity
  8
10000_FRONT
370
    50
390
0
  6
CONTINUOUS
 62
     7
100
AcDbLine
 10
293.729523
 20
267.665652
 30
0.0
 11
293.713753
 21
267.680949
 31
0.0
  0
LINE
  5
10EE
100
AcDbEntity
  8
10000_FRONT
370
    50
390
0
  6
CONTINUOUS
 62
     7
100
AcDbLine
 10
293.718677
 20
172.597533
 30
0.0
 11
293.699993
 21
172.614886
 31
0.0
  0
LINE
  5
10EF
100
AcDbEntity
  8
10000_FRONT
370
    50
390
0
  6
CONTINUOUS
 62
     7
100
AcDbLine
 10
293.713753
 20
267.680949
 30
0.0
 11
293.696463
 21
267.695586
 31
0.0
  0
LINE
  5
10F0
100
AcDbEntity
  8
10000_FRONT
370
    50
390
0
  6
CONTINUOUS
 62
     7
100
AcDbLine
 10
293.699993
 20
172.614886
 30
0.0
 11
293.678726
 21
172.632037
 31
0.0
  0
LINE
  5
10F1
100
AcDbEntity
  8
10000_FRONT
370
    50
390
0
  6
CONTINUOUS
 62
     7
100
AcDbLine
 10
293.696463
 20
267.695586
 30
0.0
 11
293.676739
 21
267.710326
 31
0.0
  0
LINE
  5
10F2
100
AcDbEntity
  8
10000_FRONT
370
    50
390
0
  6
CONTINUOUS
 62
     7
100
AcDbLine
 10
293.678726
 20
172.632037
 30
0.0
 11
293.654291
 21
172.649387
 31
0.0
  0
LINE
  5
10F3
100
AcDbEntity
  8
10000_FRONT
370
    50
390
0
  6
CONTINUOUS
 62
     7
100
AcDbLine
 10
293.676739
 20
267.710326
 30
0.0
 11
293.654526
 21
267.725143
 31
0.0
  0
LINE
  5
10F4
100
AcDbEntity
  8
10000_FRONT
370
    50
390
0
  6
CONTINUOUS
 62
     7
100
AcDbLine
 10
293.654291
 20
172.649387
 30
0.0
 11
293.626869
 21
172.666648
 31
0.0
  0
LINE
  5
10F5
100
AcDbEntity
  8
10000_FRONT
370
    50
390
0
  6
CONTINUOUS
 62
     7
100
AcDbLine
 10
293.654526
 20
267.725143
 30
0.0
 11
293.629965
 21
267.739829
 31
0.0
  0
LINE
  5
10F6
100
AcDbEntity
  8
10000_FRONT
370
    50
390
0
  6
CONTINUOUS
 62
     7
100
AcDbLine
 10
293.626869
 20
172.666648
 30
0.0
 11
293.596636
 21
172.683528
 31
0.0
  0
LINE
  5
10F7
100
AcDbEntity
  8
10000_FRONT
370
    50
390
0
  6
CONTINUOUS
 62
     7
100
AcDbLine
 10
293.629965
 20
267.739829
 30
0.0
 11
293.603201
 21
267.754188
 31
0.0
  0
LINE
  5
10F8
100
AcDbEntity
  8
10000_FRONT
370
    50
390
0
  6
CONTINUOUS
 62
     7
100
AcDbLine
 10
293.596636
 20
172.683528
 30
0.0
 11
293.563929
 21
172.699771
 31
0.0
  0
LINE
  5
10F9
100
AcDbEntity
  8
10000_FRONT
370
    50
390
0
  6
CONTINUOUS
 62
     7
100
AcDbLine
 10
293.603201
 20
267.754188
 30
0.0
 11
293.574488
 21
267.768039
 31
0.0
  0
LINE
  5
10FA
100
AcDbEntity
  8
10000_FRONT
370
    50
390
0
  6
CONTINUOUS
 62
     7
100
AcDbLine
 10
293.563929
 20
172.699771
 30
0.0
 11
293.52935
 21
172.715175
 31
0.0
  0
LINE
  5
10FB
100
AcDbEntity
  8
10000_FRONT
370
    50
390
0
  6
CONTINUOUS
 62
     7
100
AcDbLine
 10
293.574488
 20
267.768039
 30
0.0
 11
293.544273
 21
267.781249
 31
0.0
  0
LINE
  5
10FC
100
AcDbEntity
  8
10000_FRONT
370
    50
390
0
  6
CONTINUOUS
 62
     7
100
AcDbLine
 10
293.52935
 20
172.715175
 30
0.0
 11
293.493536
 21
172.729552
 31
0.0
  0
LINE
  5
10FD
100
AcDbEntity
  8
10000_FRONT
370
    50
390
0
  6
CONTINUOUS
 62
     7
100
AcDbLine
 10
293.544273
 20
267.781249
 30
0.0
 11
293.513025
 21
267.793693
 31
0.0
  0
LINE
  5
10FE
100
AcDbEntity
  8
10000_FRONT
370
    50
390
0
  6
CONTINUOUS
 62
     7
100
AcDbLine
 10
293.513025
 20
267.793693
 30
0.0
 11
293.481188
 21
267.805244
 31
0.0
  0
LINE
  5
10FF
100
AcDbEntity
  8
10000_FRONT
370
    50
390
0
  6
CONTINUOUS
 62
     7
100
AcDbLine
 10
293.493536
 20
172.729552
 30
0.0
 11
293.456581
 21
172.742892
 31
0.0
  0
LINE
  5
1100
100
AcDbEntity
  8
10000_FRONT
370
    50
390
0
  6
CONTINUOUS
 62
     7
100
AcDbLine
 10
293.481188
 20
267.805244
 30
0.0
 11
293.447481
 21
267.816364
 31
0.0
  0
LINE
  5
1101
100
AcDbEntity
  8
10000_FRONT
370
    50
390
0
  6
CONTINUOUS
 62
     7
100
AcDbLine
 10
293.456581
 20
172.742892
 30
0.0
 11
293.416325
 21
172.755962
 31
0.0
  0
LINE
  5
1102
100
AcDbEntity
  8
10000_FRONT
370
    50
390
0
  6
CONTINUOUS
 62
     7
100
AcDbLine
 10
293.447481
 20
267.816364
 30
0.0
 11
293.411188
 21
267.827274
 31
0.0
  0
LINE
  5
1103
100
AcDbEntity
  8
10000_FRONT
370
    50
390
0
  6
CONTINUOUS
 62
     7
100
AcDbLine
 10
293.416325
 20
172.755962
 30
0.0
 11
293.372927
 21
172.768607
 31
0.0
  0
LINE
  5
1104
100
AcDbEntity
  8
10000_FRONT
370
    50
390
0
  6
CONTINUOUS
 62
     7
100
AcDbLine
 10
293.411188
 20
267.827274
 30
0.0
 11
293.372683
 21
267.837787
 31
0.0
  0
LINE
  5
1105
100
AcDbEntity
  8
10000_FRONT
370
    50
390
0
  6
CONTINUOUS
 62
     7
100
AcDbLine
 10
293.372927
 20
172.768607
 30
0.0
 11
293.326931
 21
172.780551
 31
0.0
  0
LINE
  5
1106
100
AcDbEntity
  8
10000_FRONT
370
    50
390
0
  6
CONTINUOUS
 62
     7
100
AcDbLine
 10
293.372683
 20
267.837787
 30
0.0
 11
293.332336
 21
267.847728
 31
0.0
  0
LINE
  5
1107
100
AcDbEntity
  8
10000_FRONT
370
    50
390
0
  6
CONTINUOUS
 62
     7
100
AcDbLine
 10
293.326931
 20
172.780551
 30
0.0
 11
293.278936
 21
172.79153
 31
0.0
  0
LINE
  5
1108
100
AcDbEntity
  8
10000_FRONT
370
    50
390
0
  6
CONTINUOUS
 62
     7
100
AcDbLine
 10
293.332336
 20
267.847728
 30
0.0
 11
293.290567
 21
267.856944
 31
0.0
  0
LINE
  5
1109
100
AcDbEntity
  8
10000_FRONT
370
    50
390
0
  6
CONTINUOUS
 62
     7
100
AcDbLine
 10
293.278936
 20
172.79153
 30
0.0
 11
293.229797
 21
172.80141
 31
0.0
  0
LINE
  5
110A
100
AcDbEntity
  8
10000_FRONT
370
    50
390
0
  6
CONTINUOUS
 62
     7
100
AcDbLine
 10
293.290567
 20
267.856944
 30
0.0
 11
293.24795
 21
267.865356
 31
0.0
  0
LINE
  5
110B
100
AcDbEntity
  8
10000_FRONT
370
    50
390
0
  6
CONTINUOUS
 62
     7
100
AcDbLine
 10
293.24795
 20
267.865356
 30
0.0
 11
293.205088
 21
267.872901
 31
0.0
  0
LINE
  5
110C
100
AcDbEntity
  8
10000_FRONT
370
    50
390
0
  6
CONTINUOUS
 62
     7
100
AcDbLine
 10
293.229797
 20
172.80141
 30
0.0
 11
293.180429
 21
172.810088
 31
0.0
  0
LINE
  5
110D
100
AcDbEntity
  8
10000_FRONT
370
    50
390
0
  6
CONTINUOUS
 62
     7
100
AcDbLine
 10
293.205088
 20
267.872901
 30
0.0
 11
293.162594
 21
267.879516
 31
0.0
  0
LINE
  5
110E
100
AcDbEntity
  8
10000_FRONT
370
    50
390
0
  6
CONTINUOUS
 62
     7
100
AcDbLine
 10
256.465639
 20
171.504855
 30
0.0
 11
255.996385
 21
171.576835
 31
0.0
  0
LINE
  5
110F
100
AcDbEntity
  8
10000_FRONT
370
    50
390
0
  6
CONTINUOUS
 62
     7
100
AcDbLine
 10
293.180429
 20
172.810088
 30
0.0
 11
293.131266
 21
172.817527
 31
0.0
  0
LINE
  5
1110
100
AcDbEntity
  8
10000_FRONT
370
    50
390
0
  6
CONTINUOUS
 62
     7
100
AcDbLine
 10
256.783266
 20
172.115958
 30
0.0
 11
256.134106
 21
172.211288
 31
0.0
  0
LINE
  5
1111
100
AcDbEntity
  8
10000_FRONT
370
    50
390
0
  6
CONTINUOUS
 62
     7
100
AcDbLine
 10
255.996385
 20
171.576835
 30
0.0
 11
255.521402
 21
171.645679
 31
0.0
  0
LINE
  5
1112
100
AcDbEntity
  8
10000_FRONT
370
    50
390
0
  6
CONTINUOUS
 62
     7
100
AcDbLine
 10
255.521402
 20
171.645679
 30
0.0
 11
255.03405
 21
171.712238
 31
0.0
  0
LINE
  5
1113
100
AcDbEntity
  8
10000_FRONT
370
    50
390
0
  6
CONTINUOUS
 62
     7
100
AcDbLine
 10
256.134106
 20
172.211288
 30
0.0
 11
255.463696
 21
172.30247
 31
0.0
  0
LINE
  5
1114
100
AcDbEntity
  8
10000_FRONT
370
    50
390
0
  6
CONTINUOUS
 62
     7
100
AcDbLine
 10
293.162594
 20
267.879516
 30
0.0
 11
293.11932
 21
267.885394
 31
0.0
  0
LINE
  5
1115
100
AcDbEntity
  8
10000_FRONT
370
    50
390
0
  6
CONTINUOUS
 62
     7
100
AcDbLine
 10
255.03405
 20
171.712238
 30
0.0
 11
254.535438
 21
171.776172
 31
0.0
  0
LINE
  5
1116
100
AcDbEntity
  8
10000_FRONT
370
    50
390
0
  6
CONTINUOUS
 62
     7
100
AcDbLine
 10
293.131266
 20
172.817527
 30
0.0
 11
293.079407
 21
172.824157
 31
0.0
  0
LINE
  5
1117
100
AcDbEntity
  8
10000_FRONT
370
    50
390
0
  6
CONTINUOUS
 62
     7
100
AcDbLine
 10
255.463696
 20
172.30247
 30
0.0
 11
254.773687
 21
172.388866
 31
0.0
  0
LINE
  5
1118
100
AcDbEntity
  8
10000_FRONT
370
    50
390
0
  6
CONTINUOUS
 62
     7
100
AcDbLine
 10
254.535438
 20
171.776172
 30
0.0
 11
254.026682
 21
171.83715
 31
0.0
  0
LINE
  5
1119
100
AcDbEntity
  8
10000_FRONT
370
    50
390
0
  6
CONTINUOUS
 62
     7
100
AcDbLine
 10
293.11932
 20
267.885394
 30
0.0
 11
293.073774
 21
267.89072
 31
0.0
  0
LINE
  5
111A
100
AcDbEntity
  8
10000_FRONT
370
    50
390
0
  6
CONTINUOUS
 62
     7
100
AcDbLine
 10
254.773687
 20
172.388866
 30
0.0
 11
254.066635
 21
172.469711
 31
0.0
  0
LINE
  5
111B
100
AcDbEntity
  8
10000_FRONT
370
    50
390
0
  6
CONTINUOUS
 62
     7
100
AcDbLine
 10
254.026682
 20
171.83715
 30
0.0
 11
253.50889
 21
171.894839
 31
0.0
  0
LINE
  5
111C
100
AcDbEntity
  8
10000_FRONT
370
    50
390
0
  6
CONTINUOUS
 62
     7
100
AcDbLine
 10
293.079407
 20
172.824157
 30
0.0
 11
293.024958
 21
172.829894
 31
0.0
  0
LINE
  5
111D
100
AcDbEntity
  8
10000_FRONT
370
    50
390
0
  6
CONTINUOUS
 62
     7
100
AcDbLine
 10
254.066635
 20
172.469711
 30
0.0
 11
253.345184
 21
172.544315
 31
0.0
  0
LINE
  5
111E
100
AcDbEntity
  8
10000_FRONT
370
    50
390
0
  6
CONTINUOUS
 62
     7
100
AcDbLine
 10
253.50889
 20
171.894839
 30
0.0
 11
252.983267
 21
171.948993
 31
0.0
  0
LINE
  5
111F
100
AcDbEntity
  8
10000_FRONT
370
    50
390
0
  6
CONTINUOUS
 62
     7
100
AcDbLine
 10
293.073774
 20
267.89072
 30
0.0
 11
293.026524
 21
267.895381
 31
0.0
  0
LINE
  5
1120
100
AcDbEntity
  8
10000_FRONT
370
    50
390
0
  6
CONTINUOUS
 62
     7
100
AcDbLine
 10
253.881113
 20
267.57466
 30
0.0
 11
253.436722
 21
267.617679
 31
0.0
  0
LINE
  5
1121
100
AcDbEntity
  8
10000_FRONT
370
    50
390
0
  6
CONTINUOUS
 62
     7
100
AcDbLine
 10
253.345184
 20
172.544315
 30
0.0
 11
252.612186
 21
172.612228
 31
0.0
  0
LINE
  5
1122
100
AcDbEntity
  8
10000_FRONT
370
    50
390
0
  6
CONTINUOUS
 62
     7
100
AcDbLine
 10
253.436722
 20
267.617679
 30
0.0
 11
252.9883
 21
267.658305
 31
0.0
  0
LINE
  5
1123
100
AcDbEntity
  8
10000_FRONT
370
    50
390
0
  6
CONTINUOUS
 62
     7
100
AcDbLine
 10
252.9883
 20
267.658305
 30
0.0
 11
252.536467
 21
267.696445
 31
0.0
  0
LINE
  5
1124
100
AcDbEntity
  8
10000_FRONT
370
    50
390
0
  6
CONTINUOUS
 62
     7
100
AcDbLine
 10
293.024958
 20
172.829894
 30
0.0
 11
292.968847
 21
172.834533
 31
0.0
  0
LINE
  5
1125
100
AcDbEntity
  8
10000_FRONT
370
    50
390
0
  6
CONTINUOUS
 62
     7
100
AcDbLine
 10
252.612186
 20
172.612228
 30
0.0
 11
251.870529
 21
172.673019
 31
0.0
  0
LINE
  5
1126
100
AcDbEntity
  8
10000_FRONT
370
    50
390
0
  6
CONTINUOUS
 62
     7
100
AcDbLine
 10
293.026524
 20
267.895381
 30
0.0
 11
292.978138
 21
267.899257
 31
0.0
  0
LINE
  5
1127
100
AcDbEntity
  8
10000_FRONT
370
    50
390
0
  6
CONTINUOUS
 62
     7
100
AcDbLine
 10
252.536467
 20
267.696445
 30
0.0
 11
252.081858
 21
267.732001
 31
0.0
  0
LINE
  5
1128
100
AcDbEntity
  8
10000_FRONT
370
    50
390
0
  6
CONTINUOUS
 62
     7
100
AcDbLine
 10
252.081858
 20
267.732001
 30
0.0
 11
251.625105
 21
267.764899
 31
0.0
  0
LINE
  5
1129
100
AcDbEntity
  8
10000_FRONT
370
    50
390
0
  6
CONTINUOUS
 62
     7
100
AcDbLine
 10
251.870529
 20
172.673019
 30
0.0
 11
251.123072
 21
172.726279
 31
0.0
  0
LINE
  5
112A
100
AcDbEntity
  8
10000_FRONT
370
    50
390
0
  6
CONTINUOUS
 62
     7
100
AcDbLine
 10
251.625105
 20
267.764899
 30
0.0
 11
251.166809
 21
267.795066
 31
0.0
  0
LINE
  5
112B
100
AcDbEntity
  8
10000_FRONT
370
    50
390
0
  6
CONTINUOUS
 62
     7
100
AcDbLine
 10
292.978138
 20
267.899257
 30
0.0
 11
292.929201
 21
267.902248
 31
0.0
  0
LINE
  5
112C
100
AcDbEntity
  8
10000_FRONT
370
    50
390
0
  6
CONTINUOUS
 62
     7
100
AcDbLine
 10
251.123072
 20
172.726279
 30
0.0
 11
250.372683
 21
172.771812
 31
0.0
  0
LINE
  5
112D
100
AcDbEntity
  8
10000_FRONT
370
    50
390
0
  6
CONTINUOUS
 62
     7
100
AcDbLine
 10
251.166809
 20
267.795066
 30
0.0
 11
250.707619
 21
267.822486
 31
0.0
  0
LINE
  5
112E
100
AcDbEntity
  8
10000_FRONT
370
    50
390
0
  6
CONTINUOUS
 62
     7
100
AcDbLine
 10
292.968847
 20
172.834533
 30
0.0
 11
292.912029
 21
172.83792
 31
0.0
  0
LINE
  5
112F
100
AcDbEntity
  8
10000_FRONT
370
    50
390
0
  6
CONTINUOUS
 62
     7
100
AcDbLine
 10
250.707619
 20
267.822486
 30
0.0
 11
250.248217
 21
267.847152
 31
0.0
  0
LINE
  5
1130
100
AcDbEntity
  8
10000_FRONT
370
    50
390
0
  6
CONTINUOUS
 62
     7
100
AcDbLine
 10
250.372683
 20
172.771812
 30
0.0
 11
249.622463
 21
172.809562
 31
0.0
  0
LINE
  5
1131
100
AcDbEntity
  8
10000_FRONT
370
    50
390
0
  6
CONTINUOUS
 62
     7
100
AcDbLine
 10
250.248217
 20
267.847152
 30
0.0
 11
249.789282
 21
267.86906
 31
0.0
  0
LINE
  5
1132
100
AcDbEntity
  8
10000_FRONT
370
    50
390
0
  6
CONTINUOUS
 62
     7
100
AcDbLine
 10
292.929201
 20
267.902248
 30
0.0
 11
292.880348
 21
267.904361
 31
0.0
  0
LINE
  5
1133
100
AcDbEntity
  8
10000_FRONT
370
    50
390
0
  6
CONTINUOUS
 62
     7
100
AcDbLine
 10
249.789282
 20
267.86906
 30
0.0
 11
249.331493
 21
267.888194
 31
0.0
  0
LINE
  5
1134
100
AcDbEntity
  8
10000_FRONT
370
    50
390
0
  6
CONTINUOUS
 62
     7
100
AcDbLine
 10
249.622463
 20
172.809562
 30
0.0
 11
248.875532
 21
172.839469
 31
0.0
  0
LINE
  5
1135
100
AcDbEntity
  8
10000_FRONT
370
    50
390
0
  6
CONTINUOUS
 62
     7
100
AcDbLine
 10
292.912029
 20
172.83792
 30
0.0
 11
292.85556
 21
172.840068
 31
0.0
  0
LINE
  5
1136
100
AcDbEntity
  8
10000_FRONT
370
    50
390
0
  6
CONTINUOUS
 62
     7
100
AcDbLine
 10
249.331493
 20
267.888194
 30
0.0
 11
248.875532
 21
267.904552
 31
0.0
  0
LINE
  5
1137
100
AcDbEntity
  8
10000_FRONT
370
    50
390
0
  6
CONTINUOUS
 62
     7
100
AcDbLine
 10
292.880348
 20
267.904361
 30
0.0
 11
292.832243
 21
267.905624
 31
0.0
  0
LINE
  5
1138
100
AcDbEntity
  8
10000_FRONT
370
    50
390
0
  6
CONTINUOUS
 62
     7
100
AcDbLine
 10
248.875524
 20
267.904525
 30
0.0
 11
248.827528
 21
267.905704
 31
0.0
  0
LINE
  5
1139
100
AcDbEntity
  8
10000_FRONT
370
    50
390
0
  6
CONTINUOUS
 62
     7
100
AcDbLine
 10
248.875532
 20
172.839469
 30
0.0
 11
248.819853
 21
172.840812
 31
0.0
  0
LINE
  5
113A
100
AcDbEntity
  8
10000_FRONT
370
    50
390
0
  6
CONTINUOUS
 62
     7
100
AcDbLine
 10
292.85556
 20
172.840068
 30
0.0
 11
292.80052
 21
172.841018
 31
0.0
  0
LINE
  5
113B
100
AcDbEntity
  8
10000_FRONT
370
    50
390
0
  6
CONTINUOUS
 62
     7
100
AcDbLine
 10
292.832243
 20
267.905624
 30
0.0
 11
292.785538
 21
267.906066
 31
0.0
  0
LINE
  5
113C
100
AcDbEntity
  8
10000_FRONT
370
    50
390
0
  6
CONTINUOUS
 62
     7
100
AcDbLine
 10
248.827528
 20
267.905704
 30
0.0
 11
248.780994
 21
267.906066
 31
0.0
  0
LINE
  5
113D
100
AcDbEntity
  8
10000_FRONT
370
    50
390
0
  6
CONTINUOUS
 62
     7
100
AcDbLine
 10
248.819853
 20
172.840812
 30
0.0
 11
248.766012
 21
172.841018
 31
0.0
  0
LINE
  5
113E
100
AcDbEntity
  8
10000_FRONT
370
    50
390
0
  6
CONTINUOUS
 62
     7
100
AcDbLine
 10
288.583265
 20
165.10443
 30
0.0
 11
290.583265
 21
165.10443
 31
0.0
  0
LINE
  5
113F
100
AcDbEntity
  8
10000_FRONT
370
    50
390
0
  6
CONTINUOUS
 62
     7
100
AcDbLine
 10
250.983267
 20
165.10443
 30
0.0
 11
252.983267
 21
165.10443
 31
0.0
  0
LINE
  5
1140
100
AcDbEntity
  8
10000_FRONT
370
    50
390
0
  6
CONTINUOUS
 62
     7
100
AcDbLine
 10
247.783266
 20
169.095477
 30
0.0
 11
250.983267
 21
169.095477
 31
0.0
  0
LINE
  5
1141
100
AcDbEntity
  8
10000_FRONT
370
    50
390
0
  6
CONTINUOUS
 62
     7
100
AcDbLine
 10
290.583265
 20
169.095477
 30
0.0
 11
293.783266
 21
169.095477
 31
0.0
  0
LINE
  5
1142
100
AcDbEntity
  8
10000_FRONT
370
    50
390
0
  6
CONTINUOUS
 62
     7
100
AcDbLine
 10
288.583265
 20
170.809707
 30
0.0
 11
290.583265
 21
170.809707
 31
0.0
  0
LINE
  5
1143
100
AcDbEntity
  8
10000_FRONT
370
    50
390
0
  6
CONTINUOUS
 62
     7
100
AcDbLine
 10
250.983267
 20
170.809707
 30
0.0
 11
252.983267
 21
170.809707
 31
0.0
  0
LINE
  5
1144
100
AcDbEntity
  8
10000_FRONT
370
    50
390
0
  6
CONTINUOUS
 62
     7
100
AcDbLine
 10
256.465639
 20
171.504855
 30
0.0
 11
285.100893
 21
171.504855
 31
0.0
  0
LINE
  5
1145
100
AcDbEntity
  8
10000_FRONT
370
    50
390
0
  6
CONTINUOUS
 62
     7
100
AcDbLine
 10
288.583265
 20
171.899089
 30
0.0
 11
290.583265
 21
171.899089
 31
0.0
  0
LINE
  5
1146
100
AcDbEntity
  8
10000_FRONT
370
    50
390
0
  6
CONTINUOUS
 62
     7
100
AcDbLine
 10
250.983267
 20
171.899089
 30
0.0
 11
252.983267
 21
171.899089
 31
0.0
  0
LINE
  5
1147
100
AcDbEntity
  8
10000_FRONT
370
    50
390
0
  6
CONTINUOUS
 62
     7
100
AcDbLine
 10
256.783266
 20
172.115958
 30
0.0
 11
284.783266
 21
172.115958
 31
0.0
  0
LINE
  5
1148
100
AcDbEntity
  8
10000_FRONT
370
    50
390
0
  6
CONTINUOUS
 62
     7
100
AcDbLine
 10
260.683266
 20
172.904437
 30
0.0
 11
280.883266
 21
172.904437
 31
0.0
  0
LINE
  5
1149
100
AcDbEntity
  8
10000_FRONT
370
    50
390
0
  6
CONTINUOUS
 62
     7
100
AcDbLine
 10
260.683266
 20
180.104438
 30
0.0
 11
280.883266
 21
180.104438
 31
0.0
  0
LINE
  5
114A
100
AcDbEntity
  8
10000_FRONT
370
    50
390
0
  6
CONTINUOUS
 62
     7
100
AcDbLine
 10
258.283266
 20
204.023994
 30
0.0
 11
283.283266
 21
204.023994
 31
0.0
  0
LINE
  5
114B
100
AcDbEntity
  8
10000_FRONT
370
    50
390
0
  6
CONTINUOUS
 62
     7
100
AcDbLine
 10
258.283266
 20
229.077193
 30
0.0
 11
283.283266
 21
229.077193
 31
0.0
  0
LINE
  5
114C
100
AcDbEntity
  8
10000_FRONT
370
    50
390
0
  6
CONTINUOUS
 62
     7
100
AcDbLine
 10
252.714907
 20
254.004438
 30
0.0
 11
288.851627
 21
254.004438
 31
0.0
  0
LINE
  5
114D
100
AcDbEntity
  8
10000_FRONT
370
    50
390
0
  6
CONTINUOUS
 62
     7
100
AcDbLine
 10
260.683266
 20
255.50444
 30
0.0
 11
280.883266
 21
255.50444
 31
0.0
  0
LINE
  5
114E
100
AcDbEntity
  8
10000_FRONT
370
    50
390
0
  6
CONTINUOUS
 62
     7
100
AcDbLine
 10
260.683266
 20
262.704436
 30
0.0
 11
280.883266
 21
262.704436
 31
0.0
  0
LINE
  5
114F
100
AcDbEntity
  8
10000_FRONT
370
    50
390
0
  6
CONTINUOUS
 62
     7
100
AcDbLine
 10
292.746679
 20
172.840812
 30
0.0
 11
292.80052
 21
172.841018
 31
0.0
  0
LINE
  5
1150
100
AcDbEntity
  8
10000_FRONT
370
    50
390
0
  6
CONTINUOUS
 62
     7
100
AcDbLine
 10
292.739004
 20
267.905704
 30
0.0
 11
292.785538
 21
267.906066
 31
0.0
  0
LINE
  5
1151
100
AcDbEntity
  8
10000_FRONT
370
    50
390
0
  6
CONTINUOUS
 62
     7
100
AcDbLine
 10
248.734289
 20
267.905624
 30
0.0
 11
248.780994
 21
267.906066
 31
0.0
  0
LINE
  5
1152
100
AcDbEntity
  8
10000_FRONT
370
    50
390
0
  6
CONTINUOUS
 62
     7
100
AcDbLine
 10
248.710974
 20
172.840068
 30
0.0
 11
248.766012
 21
172.841018
 31
0.0
  0
LINE
  5
1153
100
AcDbEntity
  8
10000_FRONT
370
    50
390
0
  6
CONTINUOUS
 62
     7
100
AcDbLine
 10
292.691
 20
267.904552
 30
0.0
 11
292.739004
 21
267.905704
 31
0.0
  0
LINE
  5
1154
100
AcDbEntity
  8
10000_FRONT
370
    50
390
0
  6
CONTINUOUS
 62
     7
100
AcDbLine
 10
292.691008
 20
172.839442
 30
0.0
 11
292.746679
 21
172.840812
 31
0.0
  0
LINE
  5
1155
100
AcDbEntity
  8
10000_FRONT
370
    50
390
0
  6
CONTINUOUS
 62
     7
100
AcDbLine
 10
248.686184
 20
267.904361
 30
0.0
 11
248.734289
 21
267.905624
 31
0.0
  0
LINE
  5
1156
100
AcDbEntity
  8
10000_FRONT
370
    50
390
0
  6
CONTINUOUS
 62
     7
100
AcDbLine
 10
292.23522
 20
267.888202
 30
0.0
 11
292.691
 21
267.904552
 31
0.0
  0
LINE
  5
1157
100
AcDbEntity
  8
10000_FRONT
370
    50
390
0
  6
CONTINUOUS
 62
     7
100
AcDbLine
 10
248.654505
 20
172.83792
 30
0.0
 11
248.710974
 21
172.840068
 31
0.0
  0
LINE
  5
1158
100
AcDbEntity
  8
10000_FRONT
370
    50
390
0
  6
CONTINUOUS
 62
     7
100
AcDbLine
 10
291.946453
 20
172.809673
 30
0.0
 11
292.691
 21
172.839469
 31
0.0
  0
LINE
  5
1159
100
AcDbEntity
  8
10000_FRONT
370
    50
390
0
  6
CONTINUOUS
 62
     7
100
AcDbLine
 10
291.777611
 20
267.869075
 30
0.0
 11
292.23522
 21
267.888202
 31
0.0
  0
LINE
  5
115A
100
AcDbEntity
  8
10000_FRONT
370
    50
390
0
  6
CONTINUOUS
 62
     7
100
AcDbLine
 10
248.637333
 20
267.902248
 30
0.0
 11
248.686184
 21
267.904361
 31
0.0
  0
LINE
  5
115B
100
AcDbEntity
  8
10000_FRONT
370
    50
390
0
  6
CONTINUOUS
 62
     7
100
AcDbLine
 10
291.31884
 20
267.847179
 30
0.0
 11
291.777611
 21
267.869075
 31
0.0
  0
LINE
  5
115C
100
AcDbEntity
  8
10000_FRONT
370
    50
390
0
  6
CONTINUOUS
 62
     7
100
AcDbLine
 10
291.198549
 20
172.772071
 30
0.0
 11
291.946453
 21
172.809673
 31
0.0
  0
LINE
  5
115D
100
AcDbEntity
  8
10000_FRONT
370
    50
390
0
  6
CONTINUOUS
 62
     7
100
AcDbLine
 10
290.859575
 20
267.82252
 30
0.0
 11
291.31884
 21
267.847179
 31
0.0
  0
LINE
  5
115E
100
AcDbEntity
  8
10000_FRONT
370
    50
390
0
  6
CONTINUOUS
 62
     7
100
AcDbLine
 10
248.597685
 20
172.834533
 30
0.0
 11
248.654505
 21
172.83792
 31
0.0
  0
LINE
  5
115F
100
AcDbEntity
  8
10000_FRONT
370
    50
390
0
  6
CONTINUOUS
 62
     7
100
AcDbLine
 10
290.400486
 20
267.795108
 30
0.0
 11
290.859575
 21
267.82252
 31
0.0
  0
LINE
  5
1160
100
AcDbEntity
  8
10000_FRONT
370
    50
390
0
  6
CONTINUOUS
 62
     7
100
AcDbLine
 10
290.450256
 20
172.726722
 30
0.0
 11
291.198549
 21
172.772071
 31
0.0
  0
LINE
  5
1161
100
AcDbEntity
  8
10000_FRONT
370
    50
390
0
  6
CONTINUOUS
 62
     7
100
AcDbLine
 10
248.588394
 20
267.899257
 30
0.0
 11
248.637333
 21
267.902248
 31
0.0
  0
LINE
  5
1162
100
AcDbEntity
  8
10000_FRONT
370
    50
390
0
  6
CONTINUOUS
 62
     7
100
AcDbLine
 10
289.942242
 20
267.764953
 30
0.0
 11
290.400486
 21
267.795108
 31
0.0
  0
LINE
  5
1163
100
AcDbEntity
  8
10000_FRONT
370
    50
390
0
  6
CONTINUOUS
 62
     7
100
AcDbLine
 10
289.704531
 20
172.673675
 30
0.0
 11
290.450256
 21
172.726722
 31
0.0
  0
LINE
  5
1164
100
AcDbEntity
  8
10000_FRONT
370
    50
390
0
  6
CONTINUOUS
 62
     7
100
AcDbLine
 10
289.485485
 20
267.732066
 30
0.0
 11
289.942242
 21
267.764953
 31
0.0
  0
LINE
  5
1165
100
AcDbEntity
  8
10000_FRONT
370
    50
390
0
  6
CONTINUOUS
 62
     7
100
AcDbLine
 10
289.030806
 20
267.696506
 30
0.0
 11
289.485485
 21
267.732066
 31
0.0
  0
LINE
  5
1166
100
AcDbEntity
  8
10000_FRONT
370
    50
390
0
  6
CONTINUOUS
 62
     7
100
AcDbLine
 10
248.540008
 20
267.895381
 30
0.0
 11
248.588394
 21
267.899257
 31
0.0
  0
LINE
  5
1167
100
AcDbEntity
  8
10000_FRONT
370
    50
390
0
  6
CONTINUOUS
 62
     7
100
AcDbLine
 10
288.964132
 20
172.613082
 30
0.0
 11
289.704531
 21
172.673675
 31
0.0
  0
LINE
  5
1168
100
AcDbEntity
  8
10000_FRONT
370
    50
390
0
  6
CONTINUOUS
 62
     7
100
AcDbLine
 10
248.541574
 20
172.829894
 30
0.0
 11
248.597685
 21
172.834533
 31
0.0
  0
LINE
  5
1169
100
AcDbEntity
  8
10000_FRONT
370
    50
390
0
  6
CONTINUOUS
 62
     7
100
AcDbLine
 10
288.578823
 20
267.658359
 30
0.0
 11
289.030806
 21
267.696506
 31
0.0
  0
LINE
  5
116A
100
AcDbEntity
  8
10000_FRONT
370
    50
390
0
  6
CONTINUOUS
 62
     7
100
AcDbLine
 10
288.130159
 20
267.617709
 30
0.0
 11
288.578823
 21
267.658359
 31
0.0
  0
LINE
  5
116B
100
AcDbEntity
  8
10000_FRONT
370
    50
390
0
  6
CONTINUOUS
 62
     7
100
AcDbLine
 10
288.231749
 20
172.545325
 30
0.0
 11
288.964132
 21
172.613082
 31
0.0
  0
LINE
  5
116C
100
AcDbEntity
  8
10000_FRONT
370
    50
390
0
  6
CONTINUOUS
 62
     7
100
AcDbLine
 10
287.685419
 20
267.57466
 30
0.0
 11
288.130159
 21
267.617709
 31
0.0
  0
LINE
  5
116D
100
AcDbEntity
  8
10000_FRONT
370
    50
390
0
  6
CONTINUOUS
 62
     7
100
AcDbLine
 10
248.492758
 20
267.89072
 30
0.0
 11
248.540008
 21
267.895381
 31
0.0
  0
LINE
  5
116E
100
AcDbEntity
  8
10000_FRONT
370
    50
390
0
  6
CONTINUOUS
 62
     7
100
AcDbLine
 10
288.057642
 20
171.894839
 30
0.0
 11
288.583265
 21
171.948993
 31
0.0
  0
LINE
  5
116F
100
AcDbEntity
  8
10000_FRONT
370
    50
390
0
  6
CONTINUOUS
 62
     7
100
AcDbLine
 10
287.510111
 20
172.470813
 30
0.0
 11
288.231749
 21
172.545325
 31
0.0
  0
LINE
  5
1170
100
AcDbEntity
  8
10000_FRONT
370
    50
390
0
  6
CONTINUOUS
 62
     7
100
AcDbLine
 10
248.487127
 20
172.824157
 30
0.0
 11
248.541574
 21
172.829894
 31
0.0
  0
LINE
  5
1171
100
AcDbEntity
  8
10000_FRONT
370
    50
390
0
  6
CONTINUOUS
 62
     7
100
AcDbLine
 10
287.53985
 20
171.83715
 30
0.0
 11
288.057642
 21
171.894839
 31
0.0
  0
LINE
  5
1172
100
AcDbEntity
  8
10000_FRONT
370
    50
390
0
  6
CONTINUOUS
 62
     7
100
AcDbLine
 10
286.801945
 20
172.389964
 30
0.0
 11
287.510111
 21
172.470813
 31
0.0
  0
LINE
  5
1173
100
AcDbEntity
  8
10000_FRONT
370
    50
390
0
  6
CONTINUOUS
 62
     7
100
AcDbLine
 10
248.447212
 20
267.885394
 30
0.0
 11
248.492758
 21
267.89072
 31
0.0
  0
LINE
  5
1174
100
AcDbEntity
  8
10000_FRONT
370
    50
390
0
  6
CONTINUOUS
 62
     7
100
AcDbLine
 10
287.031094
 20
171.776172
 30
0.0
 11
287.53985
 21
171.83715
 31
0.0
  0
LINE
  5
1175
100
AcDbEntity
  8
10000_FRONT
370
    50
390
0
  6
CONTINUOUS
 62
     7
100
AcDbLine
 10
286.109809
 20
172.303378
 30
0.0
 11
286.801945
 21
172.389964
 31
0.0
  0
LINE
  5
1176
100
AcDbEntity
  8
10000_FRONT
370
    50
390
0
  6
CONTINUOUS
 62
     7
100
AcDbLine
 10
248.435266
 20
172.817527
 30
0.0
 11
248.487127
 21
172.824157
 31
0.0
  0
LINE
  5
1177
100
AcDbEntity
  8
10000_FRONT
370
    50
390
0
  6
CONTINUOUS
 62
     7
100
AcDbLine
 10
286.532482
 20
171.712238
 30
0.0
 11
287.031094
 21
171.776172
 31
0.0
  0
LINE
  5
1178
100
AcDbEntity
  8
10000_FRONT
370
    50
390
0
  6
CONTINUOUS
 62
     7
100
AcDbLine
 10
248.403938
 20
267.879516
 30
0.0
 11
248.447212
 21
267.885394
 31
0.0
  0
LINE
  5
1179
100
AcDbEntity
  8
10000_FRONT
370
    50
390
0
  6
CONTINUOUS
 62
     7
100
AcDbLine
 10
285.436113
 20
172.211795
 30
0.0
 11
286.109809
 21
172.303378
 31
0.0
  0
LINE
  5
117A
100
AcDbEntity
  8
10000_FRONT
370
    50
390
0
  6
CONTINUOUS
 62
     7
100
AcDbLine
 10
286.04513
 20
171.645679
 30
0.0
 11
286.532482
 21
171.712238
 31
0.0
  0
LINE
  5
117B
100
AcDbEntity
  8
10000_FRONT
370
    50
390
0
  6
CONTINUOUS
 62
     7
100
AcDbLine
 10
285.570147
 20
171.576835
 30
0.0
 11
286.04513
 21
171.645679
 31
0.0
  0
LINE
  5
117C
100
AcDbEntity
  8
10000_FRONT
370
    50
390
0
  6
CONTINUOUS
 62
     7
100
AcDbLine
 10
284.783266
 20
172.115958
 30
0.0
 11
285.436113
 21
172.211795
 31
0.0
  0
LINE
  5
117D
100
AcDbEntity
  8
10000_FRONT
370
    50
390
0
  6
CONTINUOUS
 62
     7
100
AcDbLine
 10
248.386105
 20
172.810088
 30
0.0
 11
248.435266
 21
172.817527
 31
0.0
  0
LINE
  5
117E
100
AcDbEntity
  8
10000_FRONT
370
    50
390
0
  6
CONTINUOUS
 62
     7
100
AcDbLine
 10
285.100893
 20
171.504855
 30
0.0
 11
285.570147
 21
171.576835
 31
0.0
  0
LINE
  5
117F
100
AcDbEntity
  8
10000_FRONT
370
    50
390
0
  6
CONTINUOUS
 62
     7
100
AcDbLine
 10
248.361444
 20
267.872901
 30
0.0
 11
248.403938
 21
267.879516
 31
0.0
  0
LINE
  5
1180
100
AcDbEntity
  8
10000_FRONT
370
    50
390
0
  6
CONTINUOUS
 62
     7
100
AcDbLine
 10
248.336737
 20
172.80141
 30
0.0
 11
248.386105
 21
172.810088
 31
0.0
  0
LINE
  5
1181
100
AcDbEntity
  8
10000_FRONT
370
    50
390
0
  6
CONTINUOUS
 62
     7
100
AcDbLine
 10
248.318584
 20
267.865356
 30
0.0
 11
248.361444
 21
267.872901
 31
0.0
  0
LINE
  5
1182
100
AcDbEntity
  8
10000_FRONT
370
    50
390
0
  6
CONTINUOUS
 62
     7
100
AcDbLine
 10
248.275965
 20
267.856944
 30
0.0
 11
248.318584
 21
267.865356
 31
0.0
  0
LINE
  5
1183
100
AcDbEntity
  8
10000_FRONT
370
    50
390
0
  6
CONTINUOUS
 62
     7
100
AcDbLine
 10
248.287596
 20
172.79153
 30
0.0
 11
248.336737
 21
172.80141
 31
0.0
  0
LINE
  5
1184
100
AcDbEntity
  8
10000_FRONT
370
    50
390
0
  6
CONTINUOUS
 62
     7
100
AcDbLine
 10
248.234196
 20
267.847728
 30
0.0
 11
248.275965
 21
267.856944
 31
0.0
  0
LINE
  5
1185
100
AcDbEntity
  8
10000_FRONT
370
    50
390
0
  6
CONTINUOUS
 62
     7
100
AcDbLine
 10
248.239601
 20
172.780551
 30
0.0
 11
248.287596
 21
172.79153
 31
0.0
  0
LINE
  5
1186
100
AcDbEntity
  8
10000_FRONT
370
    50
390
0
  6
CONTINUOUS
 62
     7
100
AcDbLine
 10
248.193851
 20
267.837787
 30
0.0
 11
248.234196
 21
267.847728
 31
0.0
  0
LINE
  5
1187
100
AcDbEntity
  8
10000_FRONT
370
    50
390
0
  6
CONTINUOUS
 62
     7
100
AcDbLine
 10
248.193605
 20
172.768607
 30
0.0
 11
248.239601
 21
172.780551
 31
0.0
  0
LINE
  5
1188
100
AcDbEntity
  8
10000_FRONT
370
    50
390
0
  6
CONTINUOUS
 62
     7
100
AcDbLine
 10
248.155344
 20
267.827274
 30
0.0
 11
248.193851
 21
267.837787
 31
0.0
  0
LINE
  5
1189
100
AcDbEntity
  8
10000_FRONT
370
    50
390
0
  6
CONTINUOUS
 62
     7
100
AcDbLine
 10
248.150207
 20
172.755962
 30
0.0
 11
248.193605
 21
172.768607
 31
0.0
  0
LINE
  5
118A
100
AcDbEntity
  8
10000_FRONT
370
    50
390
0
  6
CONTINUOUS
 62
     7
100
AcDbLine
 10
248.119051
 20
267.816364
 30
0.0
 11
248.155344
 21
267.827274
 31
0.0
  0
LINE
  5
118B
100
AcDbEntity
  8
10000_FRONT
370
    50
390
0
  6
CONTINUOUS
 62
     7
100
AcDbLine
 10
248.109951
 20
172.742892
 30
0.0
 11
248.150207
 21
172.755962
 31
0.0
  0
LINE
  5
118C
100
AcDbEntity
  8
10000_FRONT
370
    50
390
0
  6
CONTINUOUS
 62
     7
100
AcDbLine
 10
248.085344
 20
267.805244
 30
0.0
 11
248.119051
 21
267.816364
 31
0.0
  0
LINE
  5
118D
100
AcDbEntity
  8
10000_FRONT
370
    50
390
0
  6
CONTINUOUS
 62
     7
100
AcDbLine
 10
248.072996
 20
172.729552
 30
0.0
 11
248.109951
 21
172.742892
 31
0.0
  0
LINE
  5
118E
100
AcDbEntity
  8
10000_FRONT
370
    50
390
0
  6
CONTINUOUS
 62
     7
100
AcDbLine
 10
248.053509
 20
267.793693
 30
0.0
 11
248.085344
 21
267.805244
 31
0.0
  0
LINE
  5
118F
100
AcDbEntity
  8
10000_FRONT
370
    50
390
0
  6
CONTINUOUS
 62
     7
100
AcDbLine
 10
248.022259
 20
267.781249
 30
0.0
 11
248.053509
 21
267.793693
 31
0.0
  0
LINE
  5
1190
100
AcDbEntity
  8
10000_FRONT
370
    50
390
0
  6
CONTINUOUS
 62
     7
100
AcDbLine
 10
248.037182
 20
172.715175
 30
0.0
 11
248.072996
 21
172.729552
 31
0.0
  0
LINE
  5
1191
100
AcDbEntity
  8
10000_FRONT
370
    50
390
0
  6
CONTINUOUS
 62
     7
100
AcDbLine
 10
247.992044
 20
267.768039
 30
0.0
 11
248.022259
 21
267.781249
 31
0.0
  0
LINE
  5
1192
100
AcDbEntity
  8
10000_FRONT
370
    50
390
0
  6
CONTINUOUS
 62
     7
100
AcDbLine
 10
248.002603
 20
172.699771
 30
0.0
 11
248.037182
 21
172.715175
 31
0.0
  0
LINE
  5
1193
100
AcDbEntity
  8
10000_FRONT
370
    50
390
0
  6
CONTINUOUS
 62
     7
100
AcDbLine
 10
247.963331
 20
267.754188
 30
0.0
 11
247.992044
 21
267.768039
 31
0.0
  0
LINE
  5
1194
100
AcDbEntity
  8
10000_FRONT
370
    50
390
0
  6
CONTINUOUS
 62
     7
100
AcDbLine
 10
247.969896
 20
172.683528
 30
0.0
 11
248.002603
 21
172.699771
 31
0.0
  0
LINE
  5
1195
100
AcDbEntity
  8
10000_FRONT
370
    50
390
0
  6
CONTINUOUS
 62
     7
100
AcDbLine
 10
247.936567
 20
267.739829
 30
0.0
 11
247.963331
 21
267.754188
 31
0.0
  0
LINE
  5
1196
100
AcDbEntity
  8
10000_FRONT
370
    50
390
0
  6
CONTINUOUS
 62
     7
100
AcDbLine
 10
247.939663
 20
172.666648
 30
0.0
 11
247.969896
 21
172.683528
 31
0.0
  0
LINE
  5
1197
100
AcDbEntity
  8
10000_FRONT
370
    50
390
0
  6
CONTINUOUS
 62
     7
100
AcDbLine
 10
247.912006
 20
267.725143
 30
0.0
 11
247.936567
 21
267.739829
 31
0.0
  0
LINE
  5
1198
100
AcDbEntity
  8
10000_FRONT
370
    50
390
0
  6
CONTINUOUS
 62
     7
100
AcDbLine
 10
247.912241
 20
172.649387
 30
0.0
 11
247.939663
 21
172.666648
 31
0.0
  0
LINE
  5
1199
100
AcDbEntity
  8
10000_FRONT
370
    50
390
0
  6
CONTINUOUS
 62
     7
100
AcDbLine
 10
247.889793
 20
267.710326
 30
0.0
 11
247.912006
 21
267.725143
 31
0.0
  0
LINE
  5
119A
100
AcDbEntity
  8
10000_FRONT
370
    50
390
0
  6
CONTINUOUS
 62
     7
100
AcDbLine
 10
247.887808
 20
172.632037
 30
0.0
 11
247.912241
 21
172.649387
 31
0.0
  0
LINE
  5
119B
100
AcDbEntity
  8
10000_FRONT
370
    50
390
0
  6
CONTINUOUS
 62
     7
100
AcDbLine
 10
247.870069
 20
267.695586
 30
0.0
 11
247.889793
 21
267.710326
 31
0.0
  0
LINE
  5
119C
100
AcDbEntity
  8
10000_FRONT
370
    50
390
0
  6
CONTINUOUS
 62
     7
100
AcDbLine
 10
247.866539
 20
172.614886
 30
0.0
 11
247.887808
 21
172.632037
 31
0.0
  0
LINE
  5
119D
100
AcDbEntity
  8
10000_FRONT
370
    50
390
0
  6
CONTINUOUS
 62
     7
100
AcDbLine
 10
247.852779
 20
267.680949
 30
0.0
 11
247.870069
 21
267.695586
 31
0.0
  0
LINE
  5
119E
100
AcDbEntity
  8
10000_FRONT
370
    50
390
0
  6
CONTINUOUS
 62
     7
100
AcDbLine
 10
247.847856
 20
172.597533
 30
0.0
 11
247.866539
 21
172.614886
 31
0.0
  0
LINE
  5
119F
100
AcDbEntity
  8
10000_FRONT
370
    50
390
0
  6
CONTINUOUS
 62
     7
100
AcDbLine
 10
247.837009
 20
267.665652
 30
0.0
 11
247.852779
 21
267.680949
 31
0.0
  0
LINE
  5
11A0
100
AcDbEntity
  8
10000_FRONT
370
    50
390
0
  6
CONTINUOUS
 62
     7
100
AcDbLine
 10
247.831003
 20
172.579288
 30
0.0
 11
247.847856
 21
172.597533
 31
0.0
  0
LINE
  5
11A1
100
AcDbEntity
  8
10000_FRONT
370
    50
390
0
  6
CONTINUOUS
 62
     7
100
AcDbLine
 10
247.822866
 20
267.649718
 30
0.0
 11
247.837009
 21
267.665652
 31
0.0
  0
LINE
  5
11A2
100
AcDbEntity
  8
10000_FRONT
370
    50
390
0
  6
CONTINUOUS
 62
     7
100
AcDbLine
 10
247.81633
 20
172.560382
 30
0.0
 11
247.831003
 21
172.579288
 31
0.0
  0
LINE
  5
11A3
100
AcDbEntity
  8
10000_FRONT
370
    50
390
0
  6
CONTINUOUS
 62
     7
100
AcDbLine
 10
247.810633
 20
267.633327
 30
0.0
 11
247.822866
 21
267.649718
 31
0.0
  0
LINE
  5
11A4
100
AcDbEntity
  8
10000_FRONT
370
    50
390
0
  6
CONTINUOUS
 62
     7
100
AcDbLine
 10
247.804193
 20
172.541045
 30
0.0
 11
247.81633
 21
172.560382
 31
0.0
  0
LINE
  5
11A5
100
AcDbEntity
  8
10000_FRONT
370
    50
390
0
  6
CONTINUOUS
 62
     7
100
AcDbLine
 10
247.800587
 20
267.616649
 30
0.0
 11
247.810633
 21
267.633327
 31
0.0
  0
LINE
  5
11A6
100
AcDbEntity
  8
10000_FRONT
370
    50
390
0
  6
CONTINUOUS
 62
     7
100
AcDbLine
 10
247.794876
 20
172.521514
 30
0.0
 11
247.804193
 21
172.541045
 31
0.0
  0
LINE
  5
11A7
100
AcDbEntity
  8
10000_FRONT
370
    50
390
0
  6
CONTINUOUS
 62
     7
100
AcDbLine
 10
247.79289
 20
267.59986
 30
0.0
 11
247.800587
 21
267.616649
 31
0.0
  0
LINE
  5
11A8
100
AcDbEntity
  8
10000_FRONT
370
    50
390
0
  6
CONTINUOUS
 62
     7
100
AcDbLine
 10
247.788355
 20
172.502048
 30
0.0
 11
247.794876
 21
172.521514
 31
0.0
  0
LINE
  5
11A9
100
AcDbEntity
  8
10000_FRONT
370
    50
390
0
  6
CONTINUOUS
 62
     7
100
AcDbLine
 10
247.787491
 20
267.583163
 30
0.0
 11
247.79289
 21
267.59986
 31
0.0
  0
LINE
  5
11AA
100
AcDbEntity
  8
10000_FRONT
370
    50
390
0
  6
CONTINUOUS
 62
     7
100
AcDbLine
 10
247.784521
 20
172.482913
 30
0.0
 11
247.788355
 21
172.502048
 31
0.0
  0
LINE
  5
11AB
100
AcDbEntity
  8
10000_FRONT
370
    50
390
0
  6
CONTINUOUS
 62
     7
100
AcDbLine
 10
247.784309
 20
267.566753
 30
0.0
 11
247.787491
 21
267.583163
 31
0.0
  0
LINE
  5
11AC
100
AcDbEntity
  8
10000_FRONT
370
    50
390
0
  6
CONTINUOUS
 62
     7
100
AcDbLine
 10
252.714907
 20
254.004438
 30
0.0
 11
252.861519
 21
255.233257
 31
0.0
  0
LINE
  5
11AD
100
AcDbEntity
  8
10000_FRONT
370
    50
390
0
  6
CONTINUOUS
 62
     7
100
AcDbLine
 10
252.861519
 20
255.233257
 30
0.0
 11
252.999466
 21
256.464893
 31
0.0
  0
LINE
  5
11AE
100
AcDbEntity
  8
10000_FRONT
370
    50
390
0
  6
CONTINUOUS
 62
     7
100
AcDbLine
 10
252.999466
 20
256.464893
 30
0.0
 11
253.128906
 21
257.698306
 31
0.0
  0
LINE
  5
11AF
100
AcDbEntity
  8
10000_FRONT
370
    50
390
0
  6
CONTINUOUS
 62
     7
100
AcDbLine
 10
253.128906
 20
257.698306
 30
0.0
 11
253.249998
 21
258.932471
 31
0.0
  0
LINE
  5
11B0
100
AcDbEntity
  8
10000_FRONT
370
    50
390
0
  6
CONTINUOUS
 62
     7
100
AcDbLine
 10
253.249998
 20
258.932471
 30
0.0
 11
253.362902
 21
260.166343
 31
0.0
  0
LINE
  5
11B1
100
AcDbEntity
  8
10000_FRONT
370
    50
390
0
  6
CONTINUOUS
 62
     7
100
AcDbLine
 10
253.362902
 20
260.166343
 30
0.0
 11
253.467783
 21
261.398936
 31
0.0
  0
LINE
  5
11B2
100
AcDbEntity
  8
10000_FRONT
370
    50
390
0
  6
CONTINUOUS
 62
     7
100
AcDbLine
 10
253.467783
 20
261.398936
 30
0.0
 11
253.565027
 21
262.632201
 31
0.0
  0
LINE
  5
11B3
100
AcDbEntity
  8
10000_FRONT
370
    50
390
0
  6
CONTINUOUS
 62
     7
100
AcDbLine
 10
253.565027
 20
262.632201
 30
0.0
 11
253.654882
 21
263.867118
 31
0.0
  0
LINE
  5
11B4
100
AcDbEntity
  8
10000_FRONT
370
    50
390
0
  6
CONTINUOUS
 62
     7
100
AcDbLine
 10
247.783266
 20
172.46437
 30
0.0
 11
247.784521
 21
172.482913
 31
0.0
  0
LINE
  5
11B5
100
AcDbEntity
  8
10000_FRONT
370
    50
390
0
  6
CONTINUOUS
 62
     7
100
AcDbLine
 10
253.654882
 20
263.867118
 30
0.0
 11
253.73745
 21
265.102977
 31
0.0
  0
LINE
  5
11B6
100
AcDbEntity
  8
10000_FRONT
370
    50
390
0
  6
CONTINUOUS
 62
     7
100
AcDbLine
 10
247.783266
 20
267.550822
 30
0.0
 11
247.784309
 21
267.566753
 31
0.0
  0
LINE
  5
11B7
100
AcDbEntity
  8
10000_FRONT
370
    50
390
0
  6
CONTINUOUS
 62
     7
100
AcDbLine
 10
253.73745
 20
265.102977
 30
0.0
 11
253.812826
 21
266.339061
 31
0.0
  0
LINE
  5
11B8
100
AcDbEntity
  8
10000_FRONT
370
    50
390
0
  6
CONTINUOUS
 62
     7
100
AcDbLine
 10
253.812826
 20
266.339061
 30
0.0
 11
253.881113
 21
267.57466
 31
0.0
  0
LINE
  5
11B9
100
AcDbEntity
  8
10000_FRONT
370
    50
390
0
  6
CONTINUOUS
 62
     7
100
AcDbLine
 10
247.783266
 20
169.095477
 30
0.0
 11
247.783266
 21
267.550822
 31
0.0
  0
LINE
  5
11BA
100
AcDbEntity
  8
10000_FRONT
370
    50
390
0
  6
CONTINUOUS
 62
     7
100
AcDbLine
 10
248.875532
 20
172.839469
 30
0.0
 11
248.875532
 21
267.904552
 31
0.0
  0
LINE
  5
11BB
100
AcDbEntity
  8
10000_FRONT
370
    50
390
0
  6
CONTINUOUS
 62
     7
100
AcDbLine
 10
250.983267
 20
165.10443
 30
0.0
 11
250.983267
 21
171.899089
 31
0.0
  0
LINE
  5
11BC
100
AcDbEntity
  8
10000_FRONT
370
    50
390
0
  6
CONTINUOUS
 62
     7
100
AcDbLine
 10
252.983267
 20
165.10443
 30
0.0
 11
252.983267
 21
171.948993
 31
0.0
  0
LINE
  5
11BD
100
AcDbEntity
  8
10000_FRONT
370
    50
390
0
  6
CONTINUOUS
 62
     7
100
AcDbLine
 10
256.783266
 20
172.115958
 30
0.0
 11
256.783266
 21
254.004438
 31
0.0
  0
LINE
  5
11BE
100
AcDbEntity
  8
10000_FRONT
370
    50
390
0
  6
CONTINUOUS
 62
     7
100
AcDbLine
 10
258.283266
 20
204.023994
 30
0.0
 11
258.283266
 21
229.077193
 31
0.0
  0
LINE
  5
11BF
100
AcDbEntity
  8
10000_FRONT
370
    50
390
0
  6
CONTINUOUS
 62
     7
100
AcDbLine
 10
260.683266
 20
172.904437
 30
0.0
 11
260.683266
 21
180.104438
 31
0.0
  0
LINE
  5
11C0
100
AcDbEntity
  8
10000_FRONT
370
    50
390
0
  6
CONTINUOUS
 62
     7
100
AcDbLine
 10
260.683266
 20
255.50444
 30
0.0
 11
260.683266
 21
256.534984
 31
0.0
  0
LINE
  5
11C1
100
AcDbEntity
  8
10000_FRONT
370
    50
390
0
  6
CONTINUOUS
 62
     7
100
AcDbLine
 10
260.683266
 20
256.534984
 30
0.0
 11
260.683266
 21
257.564868
 31
0.0
  0
LINE
  5
11C2
100
AcDbEntity
  8
10000_FRONT
370
    50
390
0
  6
CONTINUOUS
 62
     7
100
AcDbLine
 10
260.683266
 20
257.564868
 30
0.0
 11
260.683266
 21
258.594096
 31
0.0
  0
LINE
  5
11C3
100
AcDbEntity
  8
10000_FRONT
370
    50
390
0
  6
CONTINUOUS
 62
     7
100
AcDbLine
 10
260.683266
 20
258.594096
 30
0.0
 11
260.683266
 21
259.622668
 31
0.0
  0
LINE
  5
11C4
100
AcDbEntity
  8
10000_FRONT
370
    50
390
0
  6
CONTINUOUS
 62
     7
100
AcDbLine
 10
260.683266
 20
259.622668
 30
0.0
 11
260.683266
 21
260.650581
 31
0.0
  0
LINE
  5
11C5
100
AcDbEntity
  8
10000_FRONT
370
    50
390
0
  6
CONTINUOUS
 62
     7
100
AcDbLine
 10
260.683266
 20
260.650581
 30
0.0
 11
260.683266
 21
261.677837
 31
0.0
  0
LINE
  5
11C6
100
AcDbEntity
  8
10000_FRONT
370
    50
390
0
  6
CONTINUOUS
 62
     7
100
AcDbLine
 10
260.683266
 20
261.677837
 30
0.0
 11
260.683266
 21
262.704436
 31
0.0
  0
LINE
  5
11C7
100
AcDbEntity
  8
10000_FRONT
370
    50
390
0
  6
CONTINUOUS
 62
     7
100
AcDbLine
 10
280.883266
 20
172.904437
 30
0.0
 11
280.883266
 21
180.104438
 31
0.0
  0
LINE
  5
11C8
100
AcDbEntity
  8
10000_FRONT
370
    50
390
0
  6
CONTINUOUS
 62
     7
100
AcDbLine
 10
280.883266
 20
261.677837
 30
0.0
 11
280.883266
 21
262.704436
 31
0.0
  0
LINE
  5
11C9
100
AcDbEntity
  8
10000_FRONT
370
    50
390
0
  6
CONTINUOUS
 62
     7
100
AcDbLine
 10
280.883266
 20
260.650581
 30
0.0
 11
280.883266
 21
261.677837
 31
0.0
  0
LINE
  5
11CA
100
AcDbEntity
  8
10000_FRONT
370
    50
390
0
  6
CONTINUOUS
 62
     7
100
AcDbLine
 10
280.883266
 20
259.622668
 30
0.0
 11
280.883266
 21
260.650581
 31
0.0
  0
LINE
  5
11CB
100
AcDbEntity
  8
10000_FRONT
370
    50
390
0
  6
CONTINUOUS
 62
     7
100
AcDbLine
 10
280.883266
 20
258.594096
 30
0.0
 11
280.883266
 21
259.622668
 31
0.0
  0
LINE
  5
11CC
100
AcDbEntity
  8
10000_FRONT
370
    50
390
0
  6
CONTINUOUS
 62
     7
100
AcDbLine
 10
280.883266
 20
257.564868
 30
0.0
 11
280.883266
 21
258.594096
 31
0.0
  0
LINE
  5
11CD
100
AcDbEntity
  8
10000_FRONT
370
    50
390
0
  6
CONTINUOUS
 62
     7
100
AcDbLine
 10
280.883266
 20
256.534984
 30
0.0
 11
280.883266
 21
257.564868
 31
0.0
  0
LINE
  5
11CE
100
AcDbEntity
  8
10000_FRONT
370
    50
390
0
  6
CONTINUOUS
 62
     7
100
AcDbLine
 10
280.883266
 20
255.50444
 30
0.0
 11
280.883266
 21
256.534984
 31
0.0
  0
LINE
  5
11CF
100
AcDbEntity
  8
10000_FRONT
370
    50
390
0
  6
CONTINUOUS
 62
     7
100
AcDbLine
 10
283.283266
 20
204.023994
 30
0.0
 11
283.283266
 21
229.077193
 31
0.0
  0
LINE
  5
11D0
100
AcDbEntity
  8
10000_FRONT
370
    50
390
0
  6
CONTINUOUS
 62
     7
100
AcDbLine
 10
284.783266
 20
172.115958
 30
0.0
 11
284.783266
 21
254.004438
 31
0.0
  0
LINE
  5
11D1
100
AcDbEntity
  8
10000_FRONT
370
    50
390
0
  6
CONTINUOUS
 62
     7
100
AcDbLine
 10
288.583265
 20
165.10443
 30
0.0
 11
288.583265
 21
171.948993
 31
0.0
  0
LINE
  5
11D2
100
AcDbEntity
  8
10000_FRONT
370
    50
390
0
  6
CONTINUOUS
 62
     7
100
AcDbLine
 10
290.583265
 20
165.10443
 30
0.0
 11
290.583265
 21
171.899089
 31
0.0
  0
LINE
  5
11D3
100
AcDbEntity
  8
10000_FRONT
370
    50
390
0
  6
CONTINUOUS
 62
     7
100
AcDbLine
 10
292.691
 20
172.839469
 30
0.0
 11
292.691
 21
267.904552
 31
0.0
  0
LINE
  5
11D4
100
AcDbEntity
  8
10000_FRONT
370
    50
390
0
  6
CONTINUOUS
 62
     7
100
AcDbLine
 10
293.783266
 20
169.095477
 30
0.0
 11
293.783266
 21
267.550822
 31
0.0
  0
LINE
  5
11D5
100
AcDbEntity
  8
10000_FRONT
370
    50
390
0
  6
CONTINUOUS
 62
     7
100
AcDbLine
 10
287.685419
 20
267.574662
 30
0.0
 11
253.881113
 21
267.574662
 31
0.0
  0
LINE
  5
11D6
100
AcDbEntity
  8
10100_FRONT_DIM
370
    13
390
0
  6
CONTINUOUS
 62
     7
100
AcDbLine
 10
247.783266
 20
267.174438
 30
0.0
 11
247.783266
 21
280.326676
 31
0.0
  0
LINE
  5
11D7
100
AcDbEntity
  8
10100_FRONT_DIM
370
    13
390
0
  6
CONTINUOUS
 62
     7
100
AcDbLine
 10
293.783266
 20
280.326676
 30
0.0
 11
293.783266
 21
267.174438
 31
0.0
  0
LINE
  5
11D8
100
AcDbEntity
  8
10100_FRONT_DIM
370
    13
390
0
  6
CONTINUOUS
 62
     7
100
AcDbLine
 10
247.783266
 20
279.184452
 30
0.0
 11
293.783266
 21
279.184452
 31
0.0
  0
TEXT
  5
11D9
100
AcDbEntity
  8
10100_FRONT_DIM
370
    13
390
0
  6
CONTINUOUS
 62
     7
100
AcDbText
 10
266.975853
 20
280.326676
 30
0.0
 40
4.568895
  1
46
 72
     1
 11
270.783266
 21
280.326676
 31
0.0
100
AcDbText
  0
LINE
  5
11DA
100
AcDbEntity
  8
10100_FRONT_DIM
370
    13
390
0
  6
CONTINUOUS
 62
     7
100
AcDbLine
 10
250.983266
 20
165.104438
 30
0.0
 11
235.361028
 21
165.104438
 31
0.0
  0
LINE
  5
11DB
100
AcDbEntity
  8
10100_FRONT_DIM
370
    13
390
0
  6
CONTINUOUS
 62
     7
100
AcDbLine
 10
235.361028
 20
267.904438
 30
0.0
 11
248.875566
 21
267.904438
 31
0.0
  0
LINE
  5
11DC
100
AcDbEntity
  8
10100_FRONT_DIM
370
    13
390
0
  6
CONTINUOUS
 62
     7
100
AcDbLine
 10
236.503252
 20
165.104438
 30
0.0
 11
236.503252
 21
267.904438
 31
0.0
  0
TEXT
  5
11DD
100
AcDbEntity
  8
10100_FRONT_DIM
370
    13
390
0
  6
CONTINUOUS
 62
     7
100
AcDbText
 10
235.361028
 20
208.508872
 30
0.0
 40
4.568895
  1
102.8
 50
90.0
 72
     1
 11
235.361028
 21
216.504438
 31
0.0
100
AcDbText
  0
SOLID
  5
11DE
100
AcDbEntity
  8
10100_FRONT_DIM
370
    13
390
0
  6
CONTINUOUS
 62
     7
100
AcDbTrace
 10
252.352161
 20
279.785958
 30
0.0
 11
247.783266
 21
279.184452
 31
0.0
 12
252.352161
 22
278.582946
 32
0.0
 13
247.783266
 23
279.184452
 33
0.0
  0
SOLID
  5
11DF
100
AcDbEntity
  8
10100_FRONT_DIM
370
    13
390
0
  6
CONTINUOUS
 62
     7
100
AcDbTrace
 10
289.214371
 20
278.582946
 30
0.0
 11
293.783266
 21
279.184452
 31
0.0
 12
289.214371
 22
279.785958
 32
0.0
 13
293.783266
 23
279.184452
 33
0.0
  0
SOLID
  5
11E0
100
AcDbEntity
  8
10100_FRONT_DIM
370
    13
390
0
  6
CONTINUOUS
 62
     7
100
AcDbTrace
 10
235.901746
 20
169.673333
 30
0.0
 11
236.503252
 21
165.104438
 31
0.0
 12
237.104758
 22
169.673333
 32
0.0
 13
236.503252
 23
165.104438
 33
0.0
  0
SOLID
  5
11E1
100
AcDbEntity
  8
10100_FRONT_DIM
370
    13
390
0
  6
CONTINUOUS
 62
     7
100
AcDbTrace
 10
237.104758
 20
263.335543
 30
0.0
 11
236.503252
 21
267.904438
 31
0.0
 12
235.901746
 22
263.335543
 32
0.0
 13
236.503252
 23
267.904438
 33
0.0
  0
LINE
  5
11E2
100
AcDbEntity
  8
11000_LEFT
370
    50
390
0
  6
CONTINUOUS
 62
     7
100
AcDbLine
 10
362.812666
 20
254.004438
 30
0.0
 11
362.669666
 21
255.50444
 31
0.0
  0
LINE
  5
11E3
100
AcDbEntity
  8
11000_LEFT
370
    50
390
0
  6
CONTINUOUS
 62
     7
100
AcDbLine
 10
361.983265
 20
262.704436
 30
0.0
 11
361.48763
 21
267.903407
 31
0.0
  0
LINE
  5
11E4
100
AcDbEntity
  8
11000_LEFT
370
    50
390
0
  6
CONTINUOUS
 62
     7
100
AcDbLine
 10
362.284555
 20
256.07537
 30
0.0
 11
362.270923
 21
256.21807
 31
0.0
  0
LINE
  5
11E5
100
AcDbEntity
  8
11000_LEFT
370
    50
390
0
  6
CONTINUOUS
 62
     7
100
AcDbLine
 10
362.325463
 20
255.647189
 30
0.0
 11
362.311826
 21
255.789928
 31
0.0
  0
LINE
  5
11E6
100
AcDbEntity
  8
11000_LEFT
370
    50
390
0
  6
CONTINUOUS
 62
     7
100
AcDbLine
 10
362.339101
 20
255.50444
 30
0.0
 11
362.325463
 21
255.647189
 31
0.0
  0
LINE
  5
11E7
100
AcDbEntity
  8
11000_LEFT
370
    50
390
0
  6
CONTINUOUS
 62
     7
100
AcDbLine
 10
362.311826
 20
255.789928
 30
0.0
 11
362.29819
 21
255.932655
 31
0.0
  0
LINE
  5
11E8
100
AcDbEntity
  8
11000_LEFT
370
    50
390
0
  6
CONTINUOUS
 62
     7
100
AcDbLine
 10
362.29819
 20
255.932655
 30
0.0
 11
362.284555
 21
256.07537
 31
0.0
  0
LINE
  5
11E9
100
AcDbEntity
  8
11000_LEFT
370
    50
390
0
  6
CONTINUOUS
 62
     7
100
AcDbLine
 10
362.270923
 20
256.21807
 30
0.0
 11
362.25729
 21
256.360759
 31
0.0
  0
LINE
  5
11EA
100
AcDbEntity
  8
11000_LEFT
370
    50
390
0
  6
CONTINUOUS
 62
     7
100
AcDbLine
 10
340.4833
 20
165.10443
 30
0.0
 11
339.4833
 21
166.10443
 31
0.0
  0
LINE
  5
11EB
100
AcDbEntity
  8
11000_LEFT
370
    50
390
0
  6
CONTINUOUS
 62
     7
100
AcDbLine
 10
335.283301
 20
264.704436
 30
0.0
 11
333.929747
 21
266.05799
 31
0.0
  0
LINE
  5
11EC
100
AcDbEntity
  8
11000_LEFT
370
    50
390
0
  6
CONTINUOUS
 62
     7
100
AcDbLine
 10
337.283301
 20
244.604438
 30
0.0
 11
333.783301
 21
247.104438
 31
0.0
  0
LINE
  5
11ED
100
AcDbEntity
  8
11000_LEFT
370
    50
390
0
  6
CONTINUOUS
 62
     7
100
AcDbLine
 10
346.693897
 20
265.4402
 30
0.0
 11
341.783301
 21
267.404437
 31
0.0
  0
LINE
  5
11EE
100
AcDbEntity
  8
11000_LEFT
370
    50
390
0
  6
CONTINUOUS
 62
     7
100
AcDbLine
 10
333.783301
 20
165.10443
 30
0.0
 11
336.0833
 21
165.10443
 31
0.0
  0
LINE
  5
11EF
100
AcDbEntity
  8
11000_LEFT
370
    50
390
0
  6
CONTINUOUS
 62
     7
100
AcDbLine
 10
340.4833
 20
165.10443
 30
0.0
 11
342.7833
 21
165.10443
 31
0.0
  0
LINE
  5
11F0
100
AcDbEntity
  8
11000_LEFT
370
    50
390
0
  6
CONTINUOUS
 62
     7
100
AcDbLine
 10
333.783301
 20
173.604438
 30
0.0
 11
342.746424
 21
173.604438
 31
0.0
  0
LINE
  5
11F1
100
AcDbEntity
  8
11000_LEFT
370
    50
390
0
  6
CONTINUOUS
 62
     7
100
AcDbLine
 10
337.283301
 20
244.604438
 30
0.0
 11
338.783301
 21
244.604438
 31
0.0
  0
LINE
  5
11F2
100
AcDbEntity
  8
11000_LEFT
370
    50
390
0
  6
CONTINUOUS
 62
     7
100
AcDbLine
 10
362.385488
 20
254.004438
 30
0.0
 11
362.812666
 21
254.004438
 31
0.0
  0
LINE
  5
11F3
100
AcDbEntity
  8
11000_LEFT
370
    50
390
0
  6
CONTINUOUS
 62
     7
100
AcDbLine
 10
362.339101
 20
255.50444
 30
0.0
 11
362.669666
 21
255.50444
 31
0.0
  0
LINE
  5
11F4
100
AcDbEntity
  8
11000_LEFT
370
    50
390
0
  6
CONTINUOUS
 62
     7
100
AcDbLine
 10
342.323029
 20
257.104438
 30
0.0
 11
351.306855
 21
257.104438
 31
0.0
  0
LINE
  5
11F5
100
AcDbEntity
  8
11000_LEFT
370
    50
390
0
  6
CONTINUOUS
 62
     7
100
AcDbLine
 10
333.783301
 20
260.597331
 30
0.0
 11
351.300342
 21
260.597331
 31
0.0
  0
LINE
  5
11F6
100
AcDbEntity
  8
11000_LEFT
370
    50
390
0
  6
CONTINUOUS
 62
     7
100
AcDbLine
 10
335.283301
 20
262.304439
 30
0.0
 11
336.683301
 21
262.304439
 31
0.0
  0
LINE
  5
11F7
100
AcDbEntity
  8
11000_LEFT
370
    50
390
0
  6
CONTINUOUS
 62
     7
100
AcDbLine
 10
361.866165
 20
262.704436
 30
0.0
 11
361.983265
 21
262.704436
 31
0.0
  0
LINE
  5
11F8
100
AcDbEntity
  8
11000_LEFT
370
    50
390
0
  6
CONTINUOUS
 62
     7
100
AcDbLine
 10
335.283301
 20
264.704436
 30
0.0
 11
336.683301
 21
264.704436
 31
0.0
  0
LINE
  5
11F9
100
AcDbEntity
  8
11000_LEFT
370
    50
390
0
  6
CONTINUOUS
 62
     7
100
AcDbLine
 10
346.879592
 20
265.404437
 30
0.0
 11
354.621771
 21
265.404437
 31
0.0
  0
LINE
  5
11FA
100
AcDbEntity
  8
11000_LEFT
370
    50
390
0
  6
CONTINUOUS
 62
     7
100
AcDbLine
 10
334.283301
 20
267.404437
 30
0.0
 11
341.783301
 21
267.404437
 31
0.0
  0
LINE
  5
11FB
100
AcDbEntity
  8
11000_LEFT
370
    50
390
0
  6
CONTINUOUS
 62
     7
100
AcDbLine
 10
361.138751
 20
172.840514
 30
0.0
 11
361.140298
 21
172.841075
 31
0.0
  0
LINE
  5
11FC
100
AcDbEntity
  8
11000_LEFT
370
    50
390
0
  6
CONTINUOUS
 62
     7
100
AcDbLine
 10
361.493888
 20
267.905685
 30
0.0
 11
361.494937
 21
267.906066
 31
0.0
  0
LINE
  5
11FD
100
AcDbEntity
  8
11000_LEFT
370
    50
390
0
  6
CONTINUOUS
 62
     7
100
AcDbLine
 10
361.466321
 20
267.895652
 30
0.0
 11
361.476842
 21
267.899478
 31
0.0
  0
LINE
  5
11FE
100
AcDbEntity
  8
11000_LEFT
370
    50
390
0
  6
CONTINUOUS
 62
     7
100
AcDbLine
 10
361.125566
 20
172.835715
 30
0.0
 11
361.133885
 21
172.838741
 31
0.0
  0
LINE
  5
11FF
100
AcDbEntity
  8
11000_LEFT
370
    50
390
0
  6
CONTINUOUS
 62
     7
100
AcDbLine
 10
361.279721
 20
267.827735
 30
0.0
 11
361.308615
 21
267.838248
 31
0.0
  0
LINE
  5
1200
100
AcDbEntity
  8
11000_LEFT
370
    50
390
0
  6
CONTINUOUS
 62
     7
100
AcDbLine
 10
361.078793
 20
267.754604
 30
0.0
 11
361.116889
 21
267.768466
 31
0.0
  0
LINE
  5
1201
100
AcDbEntity
  8
11000_LEFT
370
    50
390
0
  6
CONTINUOUS
 62
     7
100
AcDbLine
 10
361.080783
 20
172.819415
 30
0.0
 11
361.098575
 21
172.825889
 31
0.0
  0
LINE
  5
1202
100
AcDbEntity
  8
11000_LEFT
370
    50
390
0
  6
CONTINUOUS
 62
     7
100
AcDbLine
 10
361.03758
 20
172.803691
 30
0.0
 11
361.060802
 21
172.812141
 31
0.0
  0
LINE
  5
1203
100
AcDbEntity
  8
11000_LEFT
370
    50
390
0
  6
CONTINUOUS
 62
     7
100
AcDbLine
 10
361.187387
 20
267.794128
 30
0.0
 11
361.219108
 21
267.805671
 31
0.0
  0
LINE
  5
1204
100
AcDbEntity
  8
11000_LEFT
370
    50
390
0
  6
CONTINUOUS
 62
     7
100
AcDbLine
 10
361.422945
 20
267.879863
 30
0.0
 11
361.439046
 21
267.885722
 31
0.0
  0
LINE
  5
1205
100
AcDbEntity
  8
11000_LEFT
370
    50
390
0
  6
CONTINUOUS
 62
     7
100
AcDbLine
 10
360.948388
 20
172.771228
 30
0.0
 11
360.981054
 21
172.783115
 31
0.0
  0
LINE
  5
1206
100
AcDbEntity
  8
11000_LEFT
370
    50
390
0
  6
CONTINUOUS
 62
     7
100
AcDbLine
 10
360.801164
 20
172.717643
 30
0.0
 11
360.840578
 21
172.731986
 31
0.0
  0
LINE
  5
1207
100
AcDbEntity
  8
11000_LEFT
370
    50
390
0
  6
CONTINUOUS
 62
     7
100
AcDbLine
 10
361.335911
 20
267.848186
 30
0.0
 11
361.361184
 21
267.857383
 31
0.0
  0
LINE
  5
1208
100
AcDbEntity
  8
11000_LEFT
370
    50
390
0
  6
CONTINUOUS
 62
     7
100
AcDbLine
 10
360.791234
 20
267.64994
 30
0.0
 11
360.835083
 21
267.665897
 31
0.0
  0
LINE
  5
1209
100
AcDbEntity
  8
11000_LEFT
370
    50
390
0
  6
CONTINUOUS
 62
     7
100
AcDbLine
 10
360.372218
 20
172.561519
 30
0.0
 11
360.424681
 21
172.580611
 31
0.0
  0
LINE
  5
120A
100
AcDbEntity
  8
11000_LEFT
370
    50
390
0
  6
CONTINUOUS
 62
     7
100
AcDbLine
 10
361.384226
 20
267.865771
 30
0.0
 11
361.404868
 21
267.873283
 31
0.0
  0
LINE
  5
120B
100
AcDbEntity
  8
11000_LEFT
370
    50
390
0
  6
CONTINUOUS
 62
     7
100
AcDbLine
 10
360.518911
 20
267.550822
 30
0.0
 11
360.56278
 21
267.566787
 31
0.0
  0
LINE
  5
120C
100
AcDbEntity
  8
11000_LEFT
370
    50
390
0
  6
CONTINUOUS
 62
     7
100
AcDbLine
 10
360.210091
 20
172.502509
 30
0.0
 11
360.264219
 21
172.522208
 31
0.0
  0
LINE
  5
120D
100
AcDbEntity
  8
11000_LEFT
370
    50
390
0
  6
CONTINUOUS
 62
     7
100
AcDbLine
 10
360.877175
 20
267.68122
 30
0.0
 11
360.917468
 21
267.695884
 31
0.0
  0
LINE
  5
120E
100
AcDbEntity
  8
11000_LEFT
370
    50
390
0
  6
CONTINUOUS
 62
     7
100
AcDbLine
 10
360.998862
 20
267.725509
 30
0.0
 11
361.039289
 21
267.740222
 31
0.0
  0
LINE
  5
120F
100
AcDbEntity
  8
11000_LEFT
370
    50
390
0
  6
CONTINUOUS
 62
     7
100
AcDbLine
 10
360.653961
 20
267.599975
 30
0.0
 11
360.700185
 21
267.616798
 31
0.0
  0
LINE
  5
1210
100
AcDbEntity
  8
11000_LEFT
370
    50
390
0
  6
CONTINUOUS
 62
     7
100
AcDbLine
 10
360.607979
 20
267.58324
 30
0.0
 11
360.653961
 21
267.599975
 31
0.0
  0
LINE
  5
1211
100
AcDbEntity
  8
11000_LEFT
370
    50
390
0
  6
CONTINUOUS
 62
     7
100
AcDbLine
 10
360.619293
 20
172.651447
 30
0.0
 11
360.667192
 21
172.66888
 31
0.0
  0
LINE
  5
1212
100
AcDbEntity
  8
11000_LEFT
370
    50
390
0
  6
CONTINUOUS
 62
     7
100
AcDbLine
 10
360.913571
 20
172.758556
 30
0.0
 11
360.948388
 21
172.771228
 31
0.0
  0
LINE
  5
1213
100
AcDbEntity
  8
11000_LEFT
370
    50
390
0
  6
CONTINUOUS
 62
     7
100
AcDbLine
 10
360.958069
 20
267.710662
 30
0.0
 11
360.998862
 21
267.725509
 31
0.0
  0
LINE
  5
1214
100
AcDbEntity
  8
11000_LEFT
370
    50
390
0
  6
CONTINUOUS
 62
     7
100
AcDbLine
 10
361.116889
 20
267.768466
 30
0.0
 11
361.153206
 21
267.781684
 31
0.0
  0
LINE
  5
1215
100
AcDbEntity
  8
11000_LEFT
370
    50
390
0
  6
CONTINUOUS
 62
     7
100
AcDbLine
 10
360.105306
 20
172.46437
 30
0.0
 11
360.156871
 21
172.483138
 31
0.0
  0
LINE
  5
1216
100
AcDbEntity
  8
11000_LEFT
370
    50
390
0
  6
CONTINUOUS
 62
     7
100
AcDbLine
 10
360.667192
 20
172.66888
 30
0.0
 11
360.713916
 21
172.685886
 31
0.0
  0
LINE
  5
1217
100
AcDbEntity
  8
11000_LEFT
370
    50
390
0
  6
CONTINUOUS
 62
     7
100
AcDbLine
 10
360.758759
 20
172.702209
 30
0.0
 11
360.801164
 21
172.717643
 31
0.0
  0
LINE
  5
1218
100
AcDbEntity
  8
11000_LEFT
370
    50
390
0
  6
CONTINUOUS
 62
     7
100
AcDbLine
 10
342.7833
 20
165.10443
 30
0.0
 11
358.458415
 21
170.809707
 31
0.0
  0
LINE
  5
1219
100
AcDbEntity
  8
11000_LEFT
370
    50
390
0
  6
CONTINUOUS
 62
     7
100
AcDbLine
 10
350.849347
 20
169.095477
 30
0.0
 11
360.105306
 21
172.46437
 31
0.0
  0
LINE
  5
121A
100
AcDbEntity
  8
11000_LEFT
370
    50
390
0
  6
CONTINUOUS
 62
     7
100
AcDbLine
 10
342.746424
 20
173.604438
 30
0.0
 11
351.306855
 21
176.72018
 31
0.0
  0
LINE
  5
121B
100
AcDbEntity
  8
11000_LEFT
370
    50
390
0
  6
CONTINUOUS
 62
     7
100
AcDbLine
 10
360.318505
 20
172.541969
 30
0.0
 11
360.372218
 21
172.561519
 31
0.0
  0
LINE
  5
121C
100
AcDbEntity
  8
11000_LEFT
370
    50
390
0
  6
CONTINUOUS
 62
     7
100
AcDbLine
 10
350.699484
 20
263.97684
 30
0.0
 11
360.518911
 21
267.550822
 31
0.0
  0
LINE
  5
121D
100
AcDbEntity
  8
11000_LEFT
370
    50
390
0
  6
CONTINUOUS
 62
     7
100
AcDbLine
 10
360.424681
 20
172.580611
 30
0.0
 11
360.475231
 21
172.59901
 31
0.0
  0
LINE
  5
121E
100
AcDbEntity
  8
11000_LEFT
370
    50
390
0
  6
CONTINUOUS
 62
     7
100
AcDbLine
 10
360.156871
 20
172.483138
 30
0.0
 11
360.210091
 21
172.502509
 31
0.0
  0
LINE
  5
121F
100
AcDbEntity
  8
11000_LEFT
370
    50
390
0
  6
CONTINUOUS
 62
     7
100
AcDbLine
 10
360.523271
 20
172.616496
 30
0.0
 11
360.571043
 21
172.633884
 31
0.0
  0
LINE
  5
1220
100
AcDbEntity
  8
11000_LEFT
370
    50
390
0
  6
CONTINUOUS
 62
     7
100
AcDbLine
 10
360.917468
 20
267.695884
 30
0.0
 11
360.958069
 21
267.710662
 31
0.0
  0
LINE
  5
1221
100
AcDbEntity
  8
11000_LEFT
370
    50
390
0
  6
CONTINUOUS
 62
     7
100
AcDbLine
 10
360.877413
 20
172.745395
 30
0.0
 11
360.913571
 21
172.758556
 31
0.0
  0
LINE
  5
1222
100
AcDbEntity
  8
11000_LEFT
370
    50
390
0
  6
CONTINUOUS
 62
     7
100
AcDbLine
 10
360.475231
 20
172.59901
 30
0.0
 11
360.523271
 21
172.616496
 31
0.0
  0
LINE
  5
1223
100
AcDbEntity
  8
11000_LEFT
370
    50
390
0
  6
CONTINUOUS
 62
     7
100
AcDbLine
 10
360.700185
 20
267.616798
 30
0.0
 11
360.746109
 21
267.633514
 31
0.0
  0
LINE
  5
1224
100
AcDbEntity
  8
11000_LEFT
370
    50
390
0
  6
CONTINUOUS
 62
     7
100
AcDbLine
 10
361.219108
 20
267.805671
 30
0.0
 11
361.249721
 21
267.816814
 31
0.0
  0
LINE
  5
1225
100
AcDbEntity
  8
11000_LEFT
370
    50
390
0
  6
CONTINUOUS
 62
     7
100
AcDbLine
 10
361.404868
 20
267.873283
 30
0.0
 11
361.422945
 21
267.879863
 31
0.0
  0
LINE
  5
1226
100
AcDbEntity
  8
11000_LEFT
370
    50
390
0
  6
CONTINUOUS
 62
     7
100
AcDbLine
 10
360.571043
 20
172.633884
 30
0.0
 11
360.619293
 21
172.651447
 31
0.0
  0
LINE
  5
1227
100
AcDbEntity
  8
11000_LEFT
370
    50
390
0
  6
CONTINUOUS
 62
     7
100
AcDbLine
 10
360.713916
 20
172.685886
 30
0.0
 11
360.758759
 21
172.702209
 31
0.0
  0
LINE
  5
1228
100
AcDbEntity
  8
11000_LEFT
370
    50
390
0
  6
CONTINUOUS
 62
     7
100
AcDbLine
 10
361.010899
 20
172.793979
 30
0.0
 11
361.03758
 21
172.803691
 31
0.0
  0
LINE
  5
1229
100
AcDbEntity
  8
11000_LEFT
370
    50
390
0
  6
CONTINUOUS
 62
     7
100
AcDbLine
 10
360.746109
 20
267.633514
 30
0.0
 11
360.791234
 21
267.64994
 31
0.0
  0
LINE
  5
122A
100
AcDbEntity
  8
11000_LEFT
370
    50
390
0
  6
CONTINUOUS
 62
     7
100
AcDbLine
 10
360.56278
 20
267.566787
 30
0.0
 11
360.607979
 21
267.58324
 31
0.0
  0
LINE
  5
122B
100
AcDbEntity
  8
11000_LEFT
370
    50
390
0
  6
CONTINUOUS
 62
     7
100
AcDbLine
 10
360.981054
 20
172.783115
 30
0.0
 11
361.010899
 21
172.793979
 31
0.0
  0
LINE
  5
122C
100
AcDbEntity
  8
11000_LEFT
370
    50
390
0
  6
CONTINUOUS
 62
     7
100
AcDbLine
 10
360.264219
 20
172.522208
 30
0.0
 11
360.318505
 21
172.541969
 31
0.0
  0
LINE
  5
122D
100
AcDbEntity
  8
11000_LEFT
370
    50
390
0
  6
CONTINUOUS
 62
     7
100
AcDbLine
 10
361.098575
 20
172.825889
 30
0.0
 11
361.113695
 21
172.831393
 31
0.0
  0
LINE
  5
122E
100
AcDbEntity
  8
11000_LEFT
370
    50
390
0
  6
CONTINUOUS
 62
     7
100
AcDbLine
 10
360.840578
 20
172.731986
 30
0.0
 11
360.877413
 21
172.745395
 31
0.0
  0
LINE
  5
122F
100
AcDbEntity
  8
11000_LEFT
370
    50
390
0
  6
CONTINUOUS
 62
     7
100
AcDbLine
 10
361.361184
 20
267.857383
 30
0.0
 11
361.384226
 21
267.865771
 31
0.0
  0
LINE
  5
1230
100
AcDbEntity
  8
11000_LEFT
370
    50
390
0
  6
CONTINUOUS
 62
     7
100
AcDbLine
 10
361.476842
 20
267.899478
 30
0.0
 11
361.484921
 21
267.902419
 31
0.0
  0
LINE
  5
1231
100
AcDbEntity
  8
11000_LEFT
370
    50
390
0
  6
CONTINUOUS
 62
     7
100
AcDbLine
 10
361.249721
 20
267.816814
 30
0.0
 11
361.279721
 21
267.827735
 31
0.0
  0
LINE
  5
1232
100
AcDbEntity
  8
11000_LEFT
370
    50
390
0
  6
CONTINUOUS
 62
     7
100
AcDbLine
 10
360.835083
 20
267.665897
 30
0.0
 11
360.877175
 21
267.68122
 31
0.0
  0
LINE
  5
1233
100
AcDbEntity
  8
11000_LEFT
370
    50
390
0
  6
CONTINUOUS
 62
     7
100
AcDbLine
 10
361.439046
 20
267.885722
 30
0.0
 11
361.453613
 21
267.891025
 31
0.0
  0
LINE
  5
1234
100
AcDbEntity
  8
11000_LEFT
370
    50
390
0
  6
CONTINUOUS
 62
     7
100
AcDbLine
 10
361.060802
 20
172.812141
 30
0.0
 11
361.080783
 21
172.819415
 31
0.0
  0
LINE
  5
1235
100
AcDbEntity
  8
11000_LEFT
370
    50
390
0
  6
CONTINUOUS
 62
     7
100
AcDbLine
 10
361.153206
 20
267.781684
 30
0.0
 11
361.187387
 21
267.794128
 31
0.0
  0
LINE
  5
1236
100
AcDbEntity
  8
11000_LEFT
370
    50
390
0
  6
CONTINUOUS
 62
     7
100
AcDbLine
 10
361.039289
 20
267.740222
 30
0.0
 11
361.078793
 21
267.754604
 31
0.0
  0
LINE
  5
1237
100
AcDbEntity
  8
11000_LEFT
370
    50
390
0
  6
CONTINUOUS
 62
     7
100
AcDbLine
 10
361.113695
 20
172.831393
 30
0.0
 11
361.125566
 21
172.835715
 31
0.0
  0
LINE
  5
1238
100
AcDbEntity
  8
11000_LEFT
370
    50
390
0
  6
CONTINUOUS
 62
     7
100
AcDbLine
 10
361.308615
 20
267.838248
 30
0.0
 11
361.335911
 21
267.848186
 31
0.0
  0
LINE
  5
1239
100
AcDbEntity
  8
11000_LEFT
370
    50
390
0
  6
CONTINUOUS
 62
     7
100
AcDbLine
 10
361.453613
 20
267.891025
 30
0.0
 11
361.466321
 21
267.895652
 31
0.0
  0
LINE
  5
123A
100
AcDbEntity
  8
11000_LEFT
370
    50
390
0
  6
CONTINUOUS
 62
     7
100
AcDbLine
 10
361.484921
 20
267.902419
 30
0.0
 11
361.490577
 21
267.904479
 31
0.0
  0
LINE
  5
123B
100
AcDbEntity
  8
11000_LEFT
370
    50
390
0
  6
CONTINUOUS
 62
     7
100
AcDbLine
 10
361.490577
 20
267.904479
 30
0.0
 11
361.493888
 21
267.905685
 31
0.0
  0
LINE
  5
123C
100
AcDbEntity
  8
11000_LEFT
370
    50
390
0
  6
CONTINUOUS
 62
     7
100
AcDbLine
 10
361.133885
 20
172.838741
 30
0.0
 11
361.138751
 21
172.840514
 31
0.0
  0
LINE
  5
123D
100
AcDbEntity
  8
11000_LEFT
370
    50
390
0
  6
CONTINUOUS
 62
     7
100
AcDbLine
 10
338.783301
 20
254.104438
 30
0.0
 11
342.323029
 21
257.104438
 31
0.0
  0
LINE
  5
123E
100
AcDbEntity
  8
11000_LEFT
370
    50
390
0
  6
CONTINUOUS
 62
     7
100
AcDbLine
 10
336.0833
 20
165.10443
 30
0.0
 11
337.0833
 21
166.10443
 31
0.0
  0
LINE
  5
123F
100
AcDbEntity
  8
11000_LEFT
370
    50
390
0
  6
CONTINUOUS
 62
     7
100
AcDbLine
 10
333.929747
 20
260.950885
 30
0.0
 11
335.283301
 21
262.304439
 31
0.0
  0
LINE
  5
1240
100
AcDbEntity
  8
11000_LEFT
370
    50
390
0
  6
CONTINUOUS
 62
     7
100
AcDbLine
 10
333.783301
 20
247.104438
 30
0.0
 11
333.783301
 21
260.597331
 31
0.0
  0
LINE
  5
1241
100
AcDbEntity
  8
11000_LEFT
370
    50
390
0
  6
CONTINUOUS
 62
     7
100
AcDbLine
 10
333.783301
 20
165.10443
 30
0.0
 11
333.783301
 21
173.604438
 31
0.0
  0
LINE
  5
1242
100
AcDbEntity
  8
11000_LEFT
370
    50
390
0
  6
CONTINUOUS
 62
     7
100
AcDbLine
 10
333.783301
 20
266.411544
 30
0.0
 11
333.783301
 21
266.904437
 31
0.0
  0
LINE
  5
1243
100
AcDbEntity
  8
11000_LEFT
370
    50
390
0
  6
CONTINUOUS
 62
     7
100
AcDbLine
 10
337.0833
 20
166.10443
 30
0.0
 11
337.0833
 21
167.504432
 31
0.0
  0
LINE
  5
1244
100
AcDbEntity
  8
11000_LEFT
370
    50
390
0
  6
CONTINUOUS
 62
     7
100
AcDbLine
 10
338.783301
 20
244.604438
 30
0.0
 11
338.783301
 21
254.104438
 31
0.0
  0
LINE
  5
1245
100
AcDbEntity
  8
11000_LEFT
370
    50
390
0
  6
CONTINUOUS
 62
     7
100
AcDbLine
 10
339.4833
 20
166.10443
 30
0.0
 11
339.4833
 21
167.504432
 31
0.0
  0
LINE
  5
1246
100
AcDbEntity
  8
11000_LEFT
370
    50
390
0
  6
CONTINUOUS
 62
     7
100
AcDbLine
 10
351.306855
 20
173.604427
 30
0.0
 11
351.306855
 21
260.204433
 31
0.0
  0
ARC
  5
1247
100
AcDbEntity
  8
11000_LEFT
370
    50
390
0
  6
CONTINUOUS
 62
     7
100
AcDbCircle
 10
-236.716618
 20
222.604429
 30
0.0
 40
597.424484
100
AcDbArc
 50
355.026402
 51
355.131265
  0
ARC
  5
1248
100
AcDbEntity
  8
11000_LEFT
370
    50
390
0
  6
CONTINUOUS
 62
     7
100
AcDbCircle
 10
-236.692134
 20
222.604438
 30
0.0
 40
598.9
100
AcDbArc
 50
355.197561
 51
4.303993
  0
ARC
  5
1249
100
AcDbEntity
  8
11000_LEFT
370
    50
390
0
  6
CONTINUOUS
 62
     7
100
AcDbCircle
 10
-236.692134
 20
222.604438
 30
0.0
 40
599.9
100
AcDbArc
 50
355.241689
 51
4.33083
  0
ARC
  5
124A
100
AcDbEntity
  8
11000_LEFT
370
    50
390
0
  6
CONTINUOUS
 62
     7
100
AcDbCircle
 10
330.862865
 20
173.401122
 30
0.0
 40
20.445
100
AcDbArc
 50
347.842693
 51
0.569759
  0
ARC
  5
124B
100
AcDbEntity
  8
11000_LEFT
370
    50
390
0
  6
CONTINUOUS
 62
     7
100
AcDbCircle
 10
334.283301
 20
260.597332
 30
0.0
 40
0.5
100
AcDbArc
 50
135.000003
 51
180.000065
  0
ARC
  5
124C
100
AcDbEntity
  8
11000_LEFT
370
    50
390
0
  6
CONTINUOUS
 62
     7
100
AcDbCircle
 10
334.283301
 20
266.411545
 30
0.0
 40
0.499999
100
AcDbArc
 50
180.000059
 51
225.000085
  0
ARC
  5
124D
100
AcDbEntity
  8
11000_LEFT
370
    50
390
0
  6
CONTINUOUS
 62
     7
100
AcDbCircle
 10
334.283301
 20
266.904438
 30
0.0
 40
0.5
100
AcDbArc
 50
89.999947
 51
180.0
  0
ARC
  5
124E
100
AcDbEntity
  8
11000_LEFT
370
    50
390
0
  6
CONTINUOUS
 62
     7
100
AcDbCircle
 10
338.2833
 20
263.504438
 30
0.0
 40
2.0
100
AcDbArc
 50
216.869892
 51
143.130133
  0
ARC
  5
124F
100
AcDbEntity
  8
11000_LEFT
370
    50
390
0
  6
CONTINUOUS
 62
     7
100
AcDbCircle
 10
338.283301
 20
169.104431
 30
0.0
 40
2.0
100
AcDbArc
 50
306.869909
 51
233.130081
  0
ARC
  5
1250
100
AcDbEntity
  8
11000_LEFT
370
    50
390
0
  6
CONTINUOUS
 62
     7
100
AcDbCircle
 10
339.269051
 20
260.201405
 30
0.0
 40
12.037804
100
AcDbArc
 50
0.014412
 51
18.278224
  0
ARC
  5
1251
100
AcDbEntity
  8
11000_LEFT
370
    50
390
0
  6
CONTINUOUS
 62
     7
100
AcDbCircle
 10
346.879592
 20
265.904438
 30
0.0
 40
0.5
100
AcDbArc
 50
248.198565
 51
270.000019
  0
LINE
  5
1252
100
AcDbEntity
  8
11100_LEFT_DIM
370
    13
390
0
  6
CONTINUOUS
 62
     7
100
AcDbLine
 10
333.783266
 20
266.732438
 30
0.0
 11
333.783266
 21
280.326676
 31
0.0
  0
LINE
  5
1253
100
AcDbEntity
  8
11100_LEFT_DIM
370
    13
390
0
  6
CONTINUOUS
 62
     7
100
AcDbLine
 10
363.203266
 20
280.326676
 30
0.0
 11
363.203266
 21
222.604438
 31
0.0
  0
LINE
  5
1254
100
AcDbEntity
  8
11100_LEFT_DIM
370
    13
390
0
  6
CONTINUOUS
 62
     7
100
AcDbLine
 10
333.783266
 20
279.184452
 30
0.0
 11
363.203266
 21
279.184452
 31
0.0
  0
TEXT
  5
1255
100
AcDbEntity
  8
11100_LEFT_DIM
370
    13
390
0
  6
CONTINUOUS
 62
     7
100
AcDbText
 10
341.639923
 20
280.326676
 30
0.0
 40
4.568895
  1
29.4
 72
     1
 11
348.493266
 21
280.326676
 31
0.0
100
AcDbText
  0
SOLID
  5
1256
100
AcDbEntity
  8
11100_LEFT_DIM
370
    13
390
0
  6
CONTINUOUS
 62
     7
100
AcDbTrace
 10
338.352161
 20
279.785958
 30
0.0
 11
333.783266
 21
279.184452
 31
0.0
 12
338.352161
 22
278.582946
 32
0.0
 13
333.783266
 23
279.184452
 33
0.0
  0
SOLID
  5
1257
100
AcDbEntity
  8
11100_LEFT_DIM
370
    13
390
0
  6
CONTINUOUS
 62
     7
100
AcDbTrace
 10
358.634371
 20
278.582946
 30
0.0
 11
363.203266
 21
279.184452
 31
0.0
 12
358.634371
 22
279.785958
 32
0.0
 13
363.203266
 23
279.184452
 33
0.0
  0
LINE
  5
1258
100
AcDbEntity
  8
91000_TIP
370
    13
  6
CONTINUOUS
 62
     7
100
AcDbLine
 10
420.37951
 20
21.210069
 30
0.0
 11
430.37951
 21
23.710069
 31
0.0
  0
LINE
  5
1259
100
AcDbEntity
  8
91000_TIP
370
    13
  6
CONTINUOUS
 62
     7
100
AcDbLine
 10
419.099999
 20
18.710069
 30
0.0
 11
442.701989
 21
18.710069
 31
0.0
  0
LINE
  5
125A
100
AcDbEntity
  8
91000_TIP
370
    13
  6
CONTINUOUS
 62
     7
100
AcDbLine
 10
420.37951
 20
16.210069
 30
0.0
 11
430.37951
 21
13.710069
 31
0.0
  0
LINE
  5
125B
100
AcDbEntity
  8
91000_TIP
370
    13
  6
CONTINUOUS
 62
     7
100
AcDbLine
 10
420.37951
 20
21.210069
 30
0.0
 11
420.37951
 21
16.210069
 31
0.0
  0
LINE
  5
125C
100
AcDbEntity
  8
91000_TIP
370
    13
  6
CONTINUOUS
 62
     7
100
AcDbLine
 10
430.37951
 20
23.710069
 30
0.0
 11
430.37951
 21
13.710069
 31
0.0
  0
LINE
  5
125D
100
AcDbEntity
  8
91000_TIP
370
    13
  6
CONTINUOUS
 62
     7
100
AcDbLine
 10
436.87951
 20
12.988588
 30
0.0
 11
436.87951
 21
24.271974
 31
0.0
  0
CIRCLE
  5
125E
100
AcDbEntity
  8
91000_TIP
370
    13
  6
CONTINUOUS
 62
     7
100
AcDbCircle
 10
436.87951
 20
18.710069
 30
0.0
 40
5.0
  0
CIRCLE
  5
125F
100
AcDbEntity
  8
91000_TIP
370
    13
  6
CONTINUOUS
 62
     7
100
AcDbCircle
 10
436.87951
 20
18.710069
 30
0.0
 40
2.5
  0
TEXT
  5
1261
100
AcDbEntity
  8
90000_FRAME
370
    13
  6
CONTINUOUS
 62
     7
100
AcDbText
 10
449.55959
 20
29.777682
 30
0.0
 40
2.2
  1
All dimensions are in millimeters (mm)
 41
0.961374
  7
TFONT1
 72
     5
 11
516.5353
 21
29.777682
 31
0.0
100
AcDbText
  0
TEXT
  5
1262
100
AcDbEntity
  8
90000_FRAME
370
    13
  6
CONTINUOUS
 62
     7
100
AcDbText
 10
449.55959
 20
32.906705
 30
0.0
 40
2.2
  1
Alle Bemassungswerte sind in Millimeter (mm) angegeben.
 41
0.825144
  7
TFONT1
 72
     5
 11
537.905025
 21
32.906705
 31
0.0
100
AcDbText
  0
TEXT
  5
1263
100
AcDbEntity
  8
90000_FRAME
370
    13
  6
CONTINUOUS
 62
     7
100
AcDbText
 10
500.448132
 20
22.70312
 30
0.0
 40
3.0
  1

 50
359.807356
 41
0.0
  7
TFONT1
 72
     5
 11
537.411565
 21
22.578839
 31
0.0
100
AcDbText
  0
TEXT
  5
1264
100
AcDbEntity
  8
90000_FRAME
370
    13
  6
CONTINUOUS
 62
     7
100
AcDbText
 10
542.160049
 20
11.899978
 30
0.0
 40
2.2
  1
Massstab/Scale: 1:1
 41
0.736364
  7
TFONT1
 72
     5
 11
568.890049
 21
11.899978
 31
0.0
100
AcDbText
  0
TEXT
  5
1265
100
AcDbEntity
  8
90000_FRAME
370
    13
  6
CONTINUOUS
 62
     7
100
AcDbText
 10
500.295977
 20
11.899978
 30
0.0
 40
2.2
  1
Format/Size: DIN A2
 41
0.803258
  7
TFONT1
 72
     5
 11
530.337832
 21
11.899978
 31
0.0
100
AcDbText
  0
LINE
  5
1266
100
AcDbEntity
  8
90000_FRAME
370
    13
  6
CONTINUOUS
 62
     7
100
AcDbLine
 10
584.000049
 20
9.999978
 30
0.0
 11
584.000049
 21
27.999978
 31
0.0
  0
LINE
  5
1267
100
AcDbEntity
  8
90000_FRAME
370
    13
  6
CONTINUOUS
 62
     7
100
AcDbLine
 10
541.500049
 20
9.999978
 30
0.0
 11
541.500049
 21
15.999978
 31
0.0
  0
LINE
  5
1268
100
AcDbEntity
  8
90000_FRAME
370
    13
  6
CONTINUOUS
 62
     7
100
AcDbLine
 10
499.000049
 20
9.999978
 30
0.0
 11
499.000049
 21
27.999978
 31
0.0
  0
LINE
  5
1269
100
AcDbEntity
  8
90000_FRAME
370
    13
  6
CONTINUOUS
 62
     7
100
AcDbLine
 10
449.000049
 20
27.999978
 30
0.0
 11
584.000049
 21
27.999978
 31
0.0
  0
LINE
  5
126A
100
AcDbEntity
  8
90000_FRAME
370
    13
  6
CONTINUOUS
 62
     7
100
AcDbLine
 10
499.000049
 20
15.999978
 30
0.0
 11
584.000049
 21
15.999978
 31
0.0
  0
LINE
  5
126B
100
AcDbEntity
  8
90000_FRAME
370
    13
  6
CONTINUOUS
 62
     7
100
AcDbLine
 10
449.000049
 20
9.999978
 30
0.0
 11
449.000049
 21
27.999978
 31
0.0
  0
LINE
  5
126C
100
AcDbEntity
  8
90000_FRAME
370
    13
  6
CONTINUOUS
 62
     7
100
AcDbLine
 10
449.000049
 20
9.999978
 30
0.0
 11
584.000049
 21
9.999978
 31
0.0
  0
LINE
  5
126D
100
AcDbEntity
  8
90000_FRAME
370
    13
  6
CONTINUOUS
 62
     7
100
AcDbLine
 10
463.18625
 20
21.414526
 30
0.0
 11
463.18625
 21
16.661257
 31
0.0
  0
LINE
  5
126E
100
AcDbEntity
  8
90000_FRAME
370
    13
  6
CONTINUOUS
 62
     7
100
AcDbLine
 10
464.61223
 20
21.414526
 30
0.0
 11
464.61223
 21
16.661257
 31
0.0
  0
LINE
  5
126F
100
AcDbEntity
  8
90000_FRAME
370
    13
  6
CONTINUOUS
 62
     7
100
AcDbLine
 10
463.18625
 20
16.661257
 30
0.0
 11
464.61223
 21
16.661257
 31
0.0
  0
LINE
  5
1270
100
AcDbEntity
  8
90000_FRAME
370
    13
  6
CONTINUOUS
 62
     7
100
AcDbLine
 10
463.18625
 20
21.414526
 30
0.0
 11
464.61223
 21
21.414526
 31
0.0
  0
LINE
  5
1271
100
AcDbEntity
  8
90000_FRAME
370
    13
  6
CONTINUOUS
 62
     7
100
AcDbLine
 10
465.705482
 20
21.414526
 30
0.0
 11
465.705482
 21
16.661257
 31
0.0
  0
LINE
  5
1272
100
AcDbEntity
  8
90000_FRAME
370
    13
  6
CONTINUOUS
 62
     7
100
AcDbLine
 10
465.705482
 20
16.661257
 30
0.0
 11
469.270434
 21
16.661257
 31
0.0
  0
LINE
  5
1273
100
AcDbEntity
  8
90000_FRAME
370
    13
  6
CONTINUOUS
 62
     7
100
AcDbLine
 10
469.270434
 20
17.564378
 30
0.0
 11
467.08393
 21
17.564378
 31
0.0
  0
LINE
  5
1274
100
AcDbEntity
  8
90000_FRAME
370
    13
  6
CONTINUOUS
 62
     7
100
AcDbLine
 10
469.270434
 20
17.564378
 30
0.0
 11
469.270434
 21
16.661257
 31
0.0
  0
LINE
  5
1275
100
AcDbEntity
  8
90000_FRAME
370
    13
  6
CONTINUOUS
 62
     7
100
AcDbLine
 10
469.222901
 20
21.414526
 30
0.0
 11
465.705482
 21
21.414526
 31
0.0
  0
LINE
  5
1276
100
AcDbEntity
  8
90000_FRAME
370
    13
  6
CONTINUOUS
 62
     7
100
AcDbLine
 10
469.222901
 20
20.535171
 30
0.0
 11
467.08393
 21
20.535171
 31
0.0
  0
LINE
  5
1277
100
AcDbEntity
  8
90000_FRAME
370
    13
  6
CONTINUOUS
 62
     7
100
AcDbLine
 10
469.222901
 20
21.414526
 30
0.0
 11
469.222901
 21
20.535171
 31
0.0
  0
LINE
  5
1278
100
AcDbEntity
  8
90000_FRAME
370
    13
  6
CONTINUOUS
 62
     7
100
AcDbLine
 10
468.937705
 20
18.681396
 30
0.0
 11
467.08393
 21
18.681396
 31
0.0
  0
LINE
  5
1279
100
AcDbEntity
  8
90000_FRAME
370
    13
  6
CONTINUOUS
 62
     7
100
AcDbLine
 10
468.937705
 20
19.465686
 30
0.0
 11
468.937705
 21
18.681396
 31
0.0
  0
LINE
  5
127A
100
AcDbEntity
  8
90000_FRAME
370
    13
  6
CONTINUOUS
 62
     7
100
AcDbLine
 10
468.937705
 20
19.465686
 30
0.0
 11
467.08393
 21
19.465686
 31
0.0
  0
LINE
  5
127B
100
AcDbEntity
  8
90000_FRAME
370
    13
  6
CONTINUOUS
 62
     7
100
AcDbLine
 10
467.08393
 20
20.535171
 30
0.0
 11
467.08393
 21
19.465686
 31
0.0
  0
LINE
  5
127C
100
AcDbEntity
  8
90000_FRAME
370
    13
  6
CONTINUOUS
 62
     7
100
AcDbLine
 10
467.08393
 20
18.681396
 30
0.0
 11
467.08393
 21
17.564378
 31
0.0
  0
LINE
  5
127D
100
AcDbEntity
  8
90000_FRAME
370
    13
  6
CONTINUOUS
 62
     7
100
AcDbLine
 10
470.07849
 20
16.661257
 30
0.0
 11
470.07849
 21
21.414526
 31
0.0
  0
LINE
  5
127E
100
AcDbEntity
  8
90000_FRAME
370
    13
  6
CONTINUOUS
 62
     7
100
AcDbLine
 10
470.07849
 20
16.661257
 30
0.0
 11
471.029144
 21
16.661257
 31
0.0
  0
LINE
  5
127F
100
AcDbEntity
  8
90000_FRAME
370
    13
  6
CONTINUOUS
 62
     7
100
AcDbLine
 10
475.925011
 20
21.414526
 30
0.0
 11
475.925011
 21
16.661257
 31
0.0
  0
LINE
  5
1280
100
AcDbEntity
  8
90000_FRAME
370
    13
  6
CONTINUOUS
 62
     7
100
AcDbLine
 10
475.925011
 20
16.661257
 30
0.0
 11
474.546563
 21
16.661257
 31
0.0
  0
LINE
  5
1281
100
AcDbEntity
  8
90000_FRAME
370
    13
  6
CONTINUOUS
 62
     7
100
AcDbLine
 10
472.360059
 20
16.613724
 30
0.0
 11
473.215647
 21
16.613724
 31
0.0
  0
LINE
  5
1282
100
AcDbEntity
  8
90000_FRAME
370
    13
  6
CONTINUOUS
 62
     7
100
AcDbLine
 10
472.360059
 20
16.613724
 30
0.0
 11
471.029144
 21
19.703349
 31
0.0
  0
LINE
  5
1283
100
AcDbEntity
  8
90000_FRAME
370
    13
  6
CONTINUOUS
 62
     7
100
AcDbLine
 10
471.029144
 20
16.661257
 30
0.0
 11
471.029144
 21
19.703349
 31
0.0
  0
LINE
  5
1284
100
AcDbEntity
  8
90000_FRAME
370
    13
  6
CONTINUOUS
 62
     7
100
AcDbLine
 10
474.546563
 20
19.750882
 30
0.0
 11
473.215647
 21
16.613724
 31
0.0
  0
LINE
  5
1285
100
AcDbEntity
  8
90000_FRAME
370
    13
  6
CONTINUOUS
 62
     7
100
AcDbLine
 10
471.789667
 20
21.414526
 30
0.0
 11
470.07849
 21
21.414526
 31
0.0
  0
LINE
  5
1286
100
AcDbEntity
  8
90000_FRAME
370
    13
  6
CONTINUOUS
 62
     7
100
AcDbLine
 10
475.925011
 20
21.414526
 30
0.0
 11
474.213834
 21
21.414526
 31
0.0
  0
LINE
  5
1287
100
AcDbEntity
  8
90000_FRAME
370
    13
  6
CONTINUOUS
 62
     7
100
AcDbLine
 10
471.789667
 20
21.414526
 30
0.0
 11
473.025517
 21
18.515032
 31
0.0
  0
LINE
  5
1288
100
AcDbEntity
  8
90000_FRAME
370
    13
  6
CONTINUOUS
 62
     7
100
AcDbLine
 10
474.213834
 20
21.414526
 30
0.0
 11
473.025517
 21
18.515032
 31
0.0
  0
LINE
  5
1289
100
AcDbEntity
  8
90000_FRAME
370
    13
  6
CONTINUOUS
 62
     7
100
AcDbLine
 10
474.546563
 20
19.750882
 30
0.0
 11
474.546563
 21
16.661257
 31
0.0
  0
LINE
  5
128A
100
AcDbEntity
  8
90000_FRAME
370
    13
  6
CONTINUOUS
 62
     7
100
AcDbLine
 10
477.018263
 20
21.414526
 30
0.0
 11
477.018263
 21
16.661257
 31
0.0
  0
LINE
  5
128B
100
AcDbEntity
  8
90000_FRAME
370
    13
  6
CONTINUOUS
 62
     7
100
AcDbLine
 10
477.018263
 20
16.661257
 30
0.0
 11
480.583214
 21
16.661257
 31
0.0
  0
LINE
  5
128C
100
AcDbEntity
  8
90000_FRAME
370
    13
  6
CONTINUOUS
 62
     7
100
AcDbLine
 10
480.583214
 20
17.564378
 30
0.0
 11
478.396711
 21
17.564378
 31
0.0
  0
LINE
  5
128D
100
AcDbEntity
  8
90000_FRAME
370
    13
  6
CONTINUOUS
 62
     7
100
AcDbLine
 10
480.583214
 20
17.564378
 30
0.0
 11
480.583214
 21
16.661257
 31
0.0
  0
LINE
  5
128E
100
AcDbEntity
  8
90000_FRAME
370
    13
  6
CONTINUOUS
 62
     7
100
AcDbLine
 10
480.535682
 20
21.414526
 30
0.0
 11
477.018263
 21
21.414526
 31
0.0
  0
LINE
  5
128F
100
AcDbEntity
  8
90000_FRAME
370
    13
  6
CONTINUOUS
 62
     7
100
AcDbLine
 10
480.535682
 20
20.535171
 30
0.0
 11
478.396711
 21
20.535171
 31
0.0
  0
LINE
  5
1290
100
AcDbEntity
  8
90000_FRAME
370
    13
  6
CONTINUOUS
 62
     7
100
AcDbLine
 10
480.535682
 20
21.414526
 30
0.0
 11
480.535682
 21
20.535171
 31
0.0
  0
LINE
  5
1291
100
AcDbEntity
  8
90000_FRAME
370
    13
  6
CONTINUOUS
 62
     7
100
AcDbLine
 10
480.250486
 20
18.681396
 30
0.0
 11
478.396711
 21
18.681396
 31
0.0
  0
LINE
  5
1292
100
AcDbEntity
  8
90000_FRAME
370
    13
  6
CONTINUOUS
 62
     7
100
AcDbLine
 10
480.250486
 20
19.465686
 30
0.0
 11
480.250486
 21
18.681396
 31
0.0
  0
LINE
  5
1293
100
AcDbEntity
  8
90000_FRAME
370
    13
  6
CONTINUOUS
 62
     7
100
AcDbLine
 10
480.250486
 20
19.465686
 30
0.0
 11
478.396711
 21
19.465686
 31
0.0
  0
LINE
  5
1294
100
AcDbEntity
  8
90000_FRAME
370
    13
  6
CONTINUOUS
 62
     7
100
AcDbLine
 10
478.396711
 20
20.535171
 30
0.0
 11
478.396711
 21
19.465686
 31
0.0
  0
LINE
  5
1295
100
AcDbEntity
  8
90000_FRAME
370
    13
  6
CONTINUOUS
 62
     7
100
AcDbLine
 10
478.396711
 20
18.681396
 30
0.0
 11
478.396711
 21
17.564378
 31
0.0
  0
LINE
  5
1296
100
AcDbEntity
  8
90000_FRAME
370
    13
  6
CONTINUOUS
 62
     7
100
AcDbLine
 10
481.367504
 20
16.661257
 30
0.0
 11
481.367504
 21
21.414526
 31
0.0
  0
LINE
  5
1297
100
AcDbEntity
  8
90000_FRAME
370
    13
  6
CONTINUOUS
 62
     7
100
AcDbLine
 10
485.550381
 20
21.414526
 30
0.0
 11
485.550381
 21
16.661257
 31
0.0
  0
LINE
  5
1298
100
AcDbEntity
  8
90000_FRAME
370
    13
  6
CONTINUOUS
 62
     7
100
AcDbLine
 10
481.367504
 20
16.661257
 30
0.0
 11
482.318158
 21
16.661257
 31
0.0
  0
LINE
  5
1299
100
AcDbEntity
  8
90000_FRAME
370
    13
  6
CONTINUOUS
 62
     7
100
AcDbLine
 10
485.550381
 20
21.414526
 30
0.0
 11
484.599727
 21
21.414526
 31
0.0
  0
LINE
  5
129A
100
AcDbEntity
  8
90000_FRAME
370
    13
  6
CONTINUOUS
 62
     7
100
AcDbLine
 10
482.912316
 20
21.414526
 30
0.0
 11
481.367504
 21
21.414526
 31
0.0
  0
LINE
  5
129B
100
AcDbEntity
  8
90000_FRAME
370
    13
  6
CONTINUOUS
 62
     7
100
AcDbLine
 10
485.550381
 20
16.661257
 30
0.0
 11
484.029335
 21
16.661257
 31
0.0
  0
LINE
  5
129C
100
AcDbEntity
  8
90000_FRAME
370
    13
  6
CONTINUOUS
 62
     7
100
AcDbLine
 10
484.029335
 20
16.661257
 30
0.0
 11
482.318158
 21
19.703349
 31
0.0
  0
LINE
  5
129D
100
AcDbEntity
  8
90000_FRAME
370
    13
  6
CONTINUOUS
 62
     7
100
AcDbLine
 10
482.912316
 20
21.414526
 30
0.0
 11
484.599727
 21
18.467499
 31
0.0
  0
LINE
  5
129E
100
AcDbEntity
  8
90000_FRAME
370
    13
  6
CONTINUOUS
 62
     7
100
AcDbLine
 10
484.599727
 20
21.414526
 30
0.0
 11
484.599727
 21
18.467499
 31
0.0
  0
LINE
  5
129F
100
AcDbEntity
  8
90000_FRAME
370
    13
  6
CONTINUOUS
 62
     7
100
AcDbLine
 10
482.318158
 20
16.661257
 30
0.0
 11
482.318158
 21
19.703349
 31
0.0
  0
LINE
  5
12A0
100
AcDbEntity
  8
90000_FRAME
370
    13
  6
CONTINUOUS
 62
     7
100
AcDbLine
 10
486.358436
 20
16.756322
 30
0.0
 11
486.358436
 21
17.706976
 31
0.0
  0
LINE
  5
12A1
100
AcDbEntity
  8
90000_FRAME
370
    13
  6
CONTINUOUS
 62
     7
100
AcDbLine
 10
489.685725
 20
20.41634
 30
0.0
 11
489.685725
 21
21.366994
 31
0.0
  0
ARC
  5
12A2
100
AcDbEntity
  8
90000_FRAME
370
    13
  6
CONTINUOUS
 62
     7
100
AcDbCircle
 10
488.063078
 20
18.618416
 30
0.0
 40
1.111619
100
AcDbArc
 50
277.709996
 51
295.688493
  0
ARC
  5
12A3
100
AcDbEntity
  8
90000_FRAME
370
    13
  6
CONTINUOUS
 62
     7
100
AcDbCircle
 10
488.347388
 20
17.89359
 30
0.0
 40
0.340169
100
AcDbArc
 50
305.503221
 51
72.46529
  0
ARC
  5
12A4
100
AcDbEntity
  8
90000_FRAME
370
    13
  6
CONTINUOUS
 62
     7
100
AcDbCircle
 10
487.781394
 20
21.295297
 30
0.0
 40
4.756795
100
AcDbArc
 50
252.59392
 51
280.98166
  0
ARC
  5
12A5
100
AcDbEntity
  8
90000_FRAME
370
    13
  6
CONTINUOUS
 62
     7
100
AcDbCircle
 10
488.236229
 20
18.677283
 30
0.0
 40
2.100727
100
AcDbArc
 50
282.405836
 51
311.864443
  0
ARC
  5
12A6
100
AcDbEntity
  8
90000_FRAME
370
    13
  6
CONTINUOUS
 62
     7
100
AcDbCircle
 10
487.962665
 20
20.285625
 30
0.0
 40
0.302963
100
AcDbArc
 50
154.440035
 51
221.82017
  0
ARC
  5
12A7
100
AcDbEntity
  8
90000_FRAME
370
    13
  6
CONTINUOUS
 62
     7
100
AcDbCircle
 10
488.041886
 20
20.206404
 30
0.0
 40
0.410309
100
AcDbArc
 50
102.828783
 51
149.225964
  0
ARC
  5
12A8
100
AcDbEntity
  8
90000_FRAME
370
    13
  6
CONTINUOUS
 62
     7
100
AcDbCircle
 10
488.458913
 20
18.464068
 30
0.0
 40
2.201837
100
AcDbArc
 50
84.040006
 51
103.342766
  0
ARC
  5
12A9
100
AcDbEntity
  8
90000_FRAME
370
    13
  6
CONTINUOUS
 62
     7
100
AcDbCircle
 10
488.117949
 20
16.046704
 30
0.0
 40
4.642374
100
AcDbArc
 50
70.262586
 51
82.952419
  0
ARC
  5
12AA
100
AcDbEntity
  8
90000_FRAME
370
    13
  6
CONTINUOUS
 62
     7
100
AcDbCircle
 10
487.603931
 20
20.718327
 30
0.0
 40
3.258756
100
AcDbArc
 50
247.530021
 51
280.757952
  0
ARC
  5
12AB
100
AcDbEntity
  8
90000_FRAME
370
    13
  6
CONTINUOUS
 62
     7
100
AcDbCircle
 10
481.218964
 20
2.466807
 30
0.0
 40
17.331608
100
AcDbArc
 50
65.341467
 51
67.399777
  0
ARC
  5
12AC
100
AcDbEntity
  8
90000_FRAME
370
    13
  6
CONTINUOUS
 62
     7
100
AcDbCircle
 10
492.014827
 20
28.259234
 30
0.0
 40
10.629164
100
AcDbArc
 50
242.86201
 51
247.104203
  0
ARC
  5
12AD
100
AcDbEntity
  8
90000_FRAME
370
    13
  6
CONTINUOUS
 62
     7
100
AcDbCircle
 10
488.159925
 20
20.725302
 30
0.0
 40
2.166292
100
AcDbArc
 50
227.311928
 51
242.704032
  0
ARC
  5
12AE
100
AcDbEntity
  8
90000_FRAME
370
    13
  6
CONTINUOUS
 62
     7
100
AcDbCircle
 10
487.555895
 20
20.019625
 30
0.0
 40
1.238522
100
AcDbArc
 50
194.795219
 51
225.717655
  0
ARC
  5
12AF
100
AcDbEntity
  8
90000_FRAME
370
    13
  6
CONTINUOUS
 62
     7
100
AcDbCircle
 10
487.618053
 20
20.059845
 30
0.0
 40
1.309092
100
AcDbArc
 50
164.197486
 51
195.802514
  0
ARC
  5
12B0
100
AcDbEntity
  8
90000_FRAME
370
    13
  6
CONTINUOUS
 62
     7
100
AcDbCircle
 10
488.175076
 20
19.171577
 30
0.0
 40
2.366925
100
AcDbArc
 50
86.221802
 51
120.42726
  0
ARC
  5
12B1
100
AcDbEntity
  8
90000_FRAME
370
    13
  6
CONTINUOUS
 62
     7
100
AcDbCircle
 10
487.90622
 20
12.47541
 30
0.0
 40
9.067905
100
AcDbArc
 50
78.682705
 51
87.31476
  0
ARC
  5
12B2
100
AcDbEntity
  8
90000_FRAME
370
    13
  6
CONTINUOUS
 62
     7
100
AcDbCircle
 10
487.45015
 20
20.167352
 30
0.0
 40
1.119747
100
AcDbArc
 50
142.813918
 51
167.152295
  0
ARC
  5
12B3
100
AcDbEntity
  8
90000_FRAME
370
    13
  6
CONTINUOUS
 62
     7
100
AcDbCircle
 10
487.79546
 20
19.860771
 30
0.0
 40
1.580547
100
AcDbArc
 50
121.214095
 51
141.525477
  0
ARC
  5
12B4
100
AcDbEntity
  8
90000_FRAME
370
    13
  6
CONTINUOUS
 62
     7
100
AcDbCircle
 10
488.372634
 20
20.671828
 30
0.0
 40
0.866128
100
AcDbArc
 50
222.776039
 51
239.036243
  0
ARC
  5
12B5
100
AcDbEntity
  8
90000_FRAME
370
    13
  6
CONTINUOUS
 62
     7
100
AcDbCircle
 10
485.865925
 20
13.341556
 30
0.0
 40
6.858774
100
AcDbArc
 50
59.902027
 51
68.203648
  0
ARC
  5
12B6
100
AcDbEntity
  8
90000_FRAME
370
    13
  6
CONTINUOUS
 62
     7
100
AcDbCircle
 10
489.274419
 20
22.267442
 30
0.0
 40
2.698741
100
AcDbArc
 50
240.0482
 51
251.377967
  0
ARC
  5
12B7
100
AcDbEntity
  8
90000_FRAME
370
    13
  6
CONTINUOUS
 62
     7
100
AcDbCircle
 10
488.608962
 20
18.110544
 30
0.0
 40
1.433447
100
AcDbArc
 50
315.890455
 51
333.522926
  0
ARC
  5
12B8
100
AcDbEntity
  8
90000_FRAME
370
    13
  6
CONTINUOUS
 62
     7
100
AcDbCircle
 10
488.6136
 20
18.057136
 30
0.0
 40
1.406229
100
AcDbArc
 50
335.386797
 51
24.391512
  0
ARC
  5
12B9
100
AcDbEntity
  8
90000_FRAME
370
    13
  6
CONTINUOUS
 62
     7
100
AcDbCircle
 10
488.541395
 20
17.97928
 30
0.0
 40
1.504703
100
AcDbArc
 50
25.956292
 51
59.483483
  0
LINE
  5
12BA
100
AcDbEntity
  8
90000_FRAME
370
    13
  6
CONTINUOUS
 62
     7
100
AcDbLine
 10
458.765709
 20
16.756322
 30
0.0
 11
458.765709
 21
17.706976
 31
0.0
  0
LINE
  5
12BB
100
AcDbEntity
  8
90000_FRAME
370
    13
  6
CONTINUOUS
 62
     7
100
AcDbLine
 10
462.092998
 20
20.41634
 30
0.0
 11
462.092998
 21
21.366994
 31
0.0
  0
ARC
  5
12BC
100
AcDbEntity
  8
90000_FRAME
370
    13
  6
CONTINUOUS
 62
     7
100
AcDbCircle
 10
460.470351
 20
18.618416
 30
0.0
 40
1.111619
100
AcDbArc
 50
277.709996
 51
295.688493
  0
ARC
  5
12BD
100
AcDbEntity
  8
90000_FRAME
370
    13
  6
CONTINUOUS
 62
     7
100
AcDbCircle
 10
460.75466
 20
17.89359
 30
0.0
 40
0.340169
100
AcDbArc
 50
305.503221
 51
72.46529
  0
ARC
  5
12BE
100
AcDbEntity
  8
90000_FRAME
370
    13
  6
CONTINUOUS
 62
     7
100
AcDbCircle
 10
460.188667
 20
21.295297
 30
0.0
 40
4.756795
100
AcDbArc
 50
252.59392
 51
280.98166
  0
ARC
  5
12BF
100
AcDbEntity
  8
90000_FRAME
370
    13
  6
CONTINUOUS
 62
     7
100
AcDbCircle
 10
460.643502
 20
18.677283
 30
0.0
 40
2.100727
100
AcDbArc
 50
282.405836
 51
311.864443
  0
ARC
  5
12C0
100
AcDbEntity
  8
90000_FRAME
370
    13
  6
CONTINUOUS
 62
     7
100
AcDbCircle
 10
460.369938
 20
20.285625
 30
0.0
 40
0.302963
100
AcDbArc
 50
154.440035
 51
221.82017
  0
ARC
  5
12C1
100
AcDbEntity
  8
90000_FRAME
370
    13
  6
CONTINUOUS
 62
     7
100
AcDbCircle
 10
460.449159
 20
20.206404
 30
0.0
 40
0.410309
100
AcDbArc
 50
102.828783
 51
149.225964
  0
ARC
  5
12C2
100
AcDbEntity
  8
90000_FRAME
370
    13
  6
CONTINUOUS
 62
     7
100
AcDbCircle
 10
460.866186
 20
18.464068
 30
0.0
 40
2.201837
100
AcDbArc
 50
84.040006
 51
103.342766
  0
ARC
  5
12C3
100
AcDbEntity
  8
90000_FRAME
370
    13
  6
CONTINUOUS
 62
     7
100
AcDbCircle
 10
460.525222
 20
16.046704
 30
0.0
 40
4.642374
100
AcDbArc
 50
70.262586
 51
82.952419
  0
ARC
  5
12C4
100
AcDbEntity
  8
90000_FRAME
370
    13
  6
CONTINUOUS
 62
     7
100
AcDbCircle
 10
460.011204
 20
20.718327
 30
0.0
 40
3.258756
100
AcDbArc
 50
247.530021
 51
280.757952
  0
ARC
  5
12C5
100
AcDbEntity
  8
90000_FRAME
370
    13
  6
CONTINUOUS
 62
     7
100
AcDbCircle
 10
453.626237
 20
2.466807
 30
0.0
 40
17.331608
100
AcDbArc
 50
65.341467
 51
67.399777
  0
ARC
  5
12C6
100
AcDbEntity
  8
90000_FRAME
370
    13
  6
CONTINUOUS
 62
     7
100
AcDbCircle
 10
464.4221
 20
28.259234
 30
0.0
 40
10.629164
100
AcDbArc
 50
242.86201
 51
247.104203
  0
ARC
  5
12C7
100
AcDbEntity
  8
90000_FRAME
370
    13
  6
CONTINUOUS
 62
     7
100
AcDbCircle
 10
460.567198
 20
20.725302
 30
0.0
 40
2.166292
100
AcDbArc
 50
227.311928
 51
242.704032
  0
ARC
  5
12C8
100
AcDbEntity
  8
90000_FRAME
370
    13
  6
CONTINUOUS
 62
     7
100
AcDbCircle
 10
459.963168
 20
20.019625
 30
0.0
 40
1.238522
100
AcDbArc
 50
194.795219
 51
225.717655
  0
ARC
  5
12C9
100
AcDbEntity
  8
90000_FRAME
370
    13
  6
CONTINUOUS
 62
     7
100
AcDbCircle
 10
460.582349
 20
19.171577
 30
0.0
 40
2.366925
100
AcDbArc
 50
86.221802
 51
120.42726
  0
ARC
  5
12CA
100
AcDbEntity
  8
90000_FRAME
370
    13
  6
CONTINUOUS
 62
     7
100
AcDbCircle
 10
460.313493
 20
12.47541
 30
0.0
 40
9.067905
100
AcDbArc
 50
78.682705
 51
87.31476
  0
ARC
  5
12CB
100
AcDbEntity
  8
90000_FRAME
370
    13
  6
CONTINUOUS
 62
     7
100
AcDbCircle
 10
460.202733
 20
19.860771
 30
0.0
 40
1.580547
100
AcDbArc
 50
121.214095
 51
141.525477
  0
ARC
  5
12CC
100
AcDbEntity
  8
90000_FRAME
370
    13
  6
CONTINUOUS
 62
     7
100
AcDbCircle
 10
460.779907
 20
20.671828
 30
0.0
 40
0.866128
100
AcDbArc
 50
222.776039
 51
239.036243
  0
ARC
  5
12CD
100
AcDbEntity
  8
90000_FRAME
370
    13
  6
CONTINUOUS
 62
     7
100
AcDbCircle
 10
458.273198
 20
13.341556
 30
0.0
 40
6.858774
100
AcDbArc
 50
59.902027
 51
68.203648
  0
ARC
  5
12CE
100
AcDbEntity
  8
90000_FRAME
370
    13
  6
CONTINUOUS
 62
     7
100
AcDbCircle
 10
461.681692
 20
22.267442
 30
0.0
 40
2.698741
100
AcDbArc
 50
240.0482
 51
251.377967
  0
ARC
  5
12CF
100
AcDbEntity
  8
90000_FRAME
370
    13
  6
CONTINUOUS
 62
     7
100
AcDbCircle
 10
461.016235
 20
18.110544
 30
0.0
 40
1.433447
100
AcDbArc
 50
315.890455
 51
333.522926
  0
ARC
  5
12D0
100
AcDbEntity
  8
90000_FRAME
370
    13
  6
CONTINUOUS
 62
     7
100
AcDbCircle
 10
461.020873
 20
18.057136
 30
0.0
 40
1.406229
100
AcDbArc
 50
335.386797
 51
24.391512
  0
ARC
  5
12D1
100
AcDbEntity
  8
90000_FRAME
370
    13
  6
CONTINUOUS
 62
     7
100
AcDbCircle
 10
460.948668
 20
17.97928
 30
0.0
 40
1.504703
100
AcDbArc
 50
25.956292
 51
59.483483
  0
LINE
  5
12D2
100
AcDbEntity
  8
90000_FRAME
370
    13
  6
CONTINUOUS
 62
     7
100
AcDbLine
 10
458.957538
 20
20.833721
 30
0.0
 11
459.231604
 21
21.107794
 31
0.0
  0
ARC
  5
12D3
100
AcDbEntity
  8
90000_FRAME
370
    13
  6
CONTINUOUS
 62
     7
100
AcDbCircle
 10
460.025326
 20
20.059845
 30
0.0
 40
1.309092
100
AcDbArc
 50
164.197486
 51
195.802514
  0
ARC
  5
12D4
100
AcDbEntity
  8
90000_FRAME
370
    13
  6
CONTINUOUS
 62
     7
100
AcDbCircle
 10
459.857423
 20
20.167352
 30
0.0
 40
1.119747
100
AcDbArc
 50
142.813918
 51
167.152295
  0
LINE
  5
12D5
100
AcDbEntity
  8
90000_FRAME
370
    13
  6
CONTINUOUS
 62
     7
100
AcDbLine
 10
589.000049
 20
4.999978
 30
0.0
 11
589.000049
 21
414.999978
 31
0.0
  0
LINE
  5
12D6
100
AcDbEntity
  8
90000_FRAME
370
    13
  6
CONTINUOUS
 62
     7
100
AcDbLine
 10
594.000049
 20
-0.000022
 30
0.0
 11
594.000049
 21
419.999978
 31
0.0
  0
LINE
  5
12D7
100
AcDbEntity
  8
90000_FRAME
370
    13
  6
CONTINUOUS
 62
     7
100
AcDbLine
 10
5.000049
 20
4.999978
 30
0.0
 11
5.000049
 21
414.999978
 31
0.0
  0
LINE
  5
12D8
100
AcDbEntity
  8
90000_FRAME
370
    13
  6
CONTINUOUS
 62
     7
100
AcDbLine
 10
0.000049
 20
-0.000022
 30
0.0
 11
0.000049
 21
419.999978
 31
0.0
  0
LINE
  5
12D9
100
AcDbEntity
  8
90000_FRAME
370
    13
  6
CONTINUOUS
 62
     7
100
AcDbLine
 10
589.000049
 20
414.999978
 30
0.0
 11
5.000049
 21
414.999978
 31
0.0
  0
LINE
  5
12DA
100
AcDbEntity
  8
90000_FRAME
370
    13
  6
CONTINUOUS
 62
     7
100
AcDbLine
 10
594.000049
 20
419.999978
 30
0.0
 11
0.000049
 21
419.999978
 31
0.0
  0
LINE
  5
12DB
100
AcDbEntity
  8
90000_FRAME
370
    13
  6
CONTINUOUS
 62
     7
100
AcDbLine
 10
589.000049
 20
4.999978
 30
0.0
 11
5.000049
 21
4.999978
 31
0.0
  0
LINE
  5
12DC
100
AcDbEntity
  8
90000_FRAME
370
    13
  6
CONTINUOUS
 62
     7
100
AcDbLine
 10
594.000049
 20
-0.000022
 30
0.0
 11
0.000049
 21
-0.000022
 31
0.0
  0
ENDSEC
  0
SECTION
  2
OBJECTS
  0
DICTIONARY
  5
10CF
100
AcDbDictionary
280
     0
281
     1
  3
ACAD_GROUP
350
10D0
  3
ACAD_MLINESTYLE
350
10D1
  0
DICTIONARY
  5
10D0
102
{ACAD_REACTORS
330
10CF
102
}
100
AcDbDictionary
280
     0
281
     1
  0
DICTIONARY
  5
10D1
102
{ACAD_REACTORS
330
10CF
102
}
100
AcDbDictionary
280
     0
281
     1
  3
Standard
350
10D2
  0
MLINESTYLE
  5
10D2
102
{ACAD_REACTORS
330
10D1
102
}
100
AcDbMlineStyle
  2
Standard
 70
     0
  3

 62
     0
 51
90.0
 52
90.0
 71
     2
 49
0.5
 62
   256
  6
ByLayer
 49
-0.5
 62
   256
  6
ByLayer
  0
ENDSEC
  0
EOF
